John Frusciante - Away And Anywhere Chords & Tabs

 

Away And Anywhere Chords & Tabs

John Frusciante Chords & Tabs

Version: 1 Type: Tab 0 ratings
1 star 2 stars 3 stars 4 stars 5 stars
comments

Away And Anywhere Tab

   
I didn't find an accurate version so i made my own
It's just the text version of my guitar pro tab posted on ultimatetab
(version 2) 

_______________________

---Away and anywhere--- 
_______________________


by John Frusciante
tab by EntaraXia@gmail.com

-----------------------

Standard tuning (EADGBe)


Intro/main Riff:
----------------
                      
                       let ring the last chord
E||-----------------------|-------------------------|
B||-----------------------|-----6--6--6--6--6--6----|
G||--6----6----5--5----6--|-------------------------|
D||--8----8----6--6----8--|-------------------------|
A||--8----8----6--6----8--|-------------------------|
E||-----------------------|-------------------------|

E||-----------------------|-------------------------|
B||-----------------------|-----6--6--6--6----------|
G||--6----6----5--5----6--|-------------------------|
D||--8----8----6--6----8--|-------------------------|
A||--8----8----6--6----8--|-------------------------|
E||-----------------------|-------------------------|

repeat that but keep in mind that sometimes there's "some variations about the 
"6" note 


main riff variation
-------------------

played after 6time of main theme.

|-------------------------------------------------|
|-----------------------|-------------------------|
|--8----8----6--6----8--|-----8--8--8--8--8--8----|
|--8----8----6--6----8--|-------------------------|
|--9----9----8--8----9--|-------------------------|
|-----------------------|-------------------------|x2



Prechorus 
---------

"i'm away....i'm away and anywhere...."

|--------------------------|--------------------------|
|--------------------------|--------------------------|
|--6--6--6--6--6--6--6--6--|--6--6--6--6--6--6--6--6--|
|--8--8--8--8--8--8--8--8--|--8--8--8--8--8--8--8--8--|
|--9--9--9--9--9--9--9--9--|--9--9--9--9--9--9--9--9--|
|--------------------------|--------------------------|


----------------------------------|----------------------------------|
----------------------------------|----------------------------------|
---8---8---8---8---8---8---8---8--|---8---8---8---8---8---8---8---8--|
--10--10--10--10--10--10--10--10--|--10--10--10--10--10--10--10--10--|
--11--11--11--11--11--11--11--11--|--11--11--11--11--11--11--11--11--|
----------------------------------|----------------------------------|


replay main riff


then it's 


Chorus (for one guitar)
------
A#                                  G#
-----------------------------------|----------------------------|
--11---11--11--11--11--11--11--11--|---9---9--9--9--9--9--9--9--|
--10---10--10--10--10--10--10--10--|---8---8--8--8--8--8--8--8--|
--(8)------------------------------|--(6)-----------------------|
-----------------------------------|----------------------------|
-----------------------------------|----------------------------|

[ Tab from: http://www.guitartabs.cc/tabs/j/john_frusciante/away_and_anywhere_tab.html ]
D#                           
----------------------------|--------------------------|
---4---4--4--4--4--4--4--4--|--4--4--4--4--4--4--4--4--|
---3---3--3--3--3--3--3--3--|--3--3--3--3--3--3--3--3--|
--(1)-----------------------|--------------------------|
----------------------------|--------------------------|
----------------------------|--------------------------|


let ring the note in brackets 

(for a two guitar version check out my gp version)


-----------------------------

Then it's the same thing

-Main riff and variation
-prechorus
-main riff
-chorus

all of that 2more times expect for the last chorus that include solo

-----------------------------


Solo
----

played on the chorus chords 
                    
                    D#                                      A#  
-------------------|--8----------------|-------------------|--6----------------|
-------------------|-------------------|-------------------|-------------------|
-------------------|-------------------|-------------------|-------------------|
-------------------|-------------------|-------------------|-------------------|
-------------------|-------------------|-------------------|-------------------|
-------------------|-------------------|-------------------|-------------------|


 G#                  D#
--8------------9----|--13------11------9----|--8------6------4s--6--|
--------------------|-----------------------|-----------------------|
--------------------|-----------------------|-----------------------|
--------------------|-----------------------|-----------------------|
--------------------|-----------------------|-----------------------|
--------------------|-----------------------|-----------------------|

 A#                       G#                          D#
-------------------------|---------------------------|-------------------------|
-------------------------|---------------------------|-------------------------|
--------6-----6-------6--|--L-------6-----6-------6--|--8-----6-----6-------6--|
-----8-----8-----8-------|-------8-----8-----8-------|-----8-----8-----8-------|
-------------------------|---------------------------|-------------------------|
-------------------------|---------------------------|-------------------------|

                          A#                        G#                       
-------------------------|-------------------------|------------------------|
-----------------6-------|-------------------------|------------------------|
--L-----6-----6----------|--------6-----6-------6--|--L-----6-----6---------|
-----8-----8----------8--|--L--8-----8-----8-------|-----8-----8-----8------|
-------------------------|-------------------------|------------------------|
-------------------------|-------------------------|------------------------|




and this is the end

don't hesitate to submit correction or comments.










Comments