John Frusciante - Ascension Chords & Tabs

 

Ascension Chords & Tabs

John Frusciante Chords & Tabs

Version: 1 Type: Tab 0 ratings
1 star 2 stars 3 stars 4 stars 5 stars
comments

Ascension Tab

   
                                  Ascension                                     

                                John Frusciante




     E  E  E  E  Q    E  E     E  E  E  E  Q    E  E   
E||-------------------------|-------------------------|
B||--------------0----0--0--|-----0--0--0--0----0--0--|
G||--------------0----0--0--|-----0--0--0--0----0--0--|
D||--------0--2--2----2--2--|-----2--2--2--2----2--2--|
A||--0--2--------2----2--2--|-----2--2--2--2----2--2--|
E||--------------0----0--0--|-----0--0--0--0----0--0--|


  E  E  E  E  Q    E  E     E  E  E  E  Q    E  E     E  E  E  E  Q    E  E   
-------------------------|-------------------------|-------------------------|
-----0--0--0--0----0--0--|-----0--0--0--0----0--0--|-----0--0--0--0----0--0--|
-----0--0--0--0----0--0--|-----0--0--0--0----0--0--|-----0--0--0--0----0--0--|
-----2--2--2--2----2--2--|-----2--2--2--2----2--2--|-----2--2--2--2----2--2--|
-----2--2--2--2----2--2--|-----2--2--2--2----2--2--|-----2--2--2--2----2--2--|
-----0--0--0--0----0--0--|-----0--0--0--0----0--0--|-----0--0--0--0----0--0--|


  E  E  E  E  Q    E  E     E  E  E  E  Q    E  E     E  E  E  E  Q    E  E   
-------------------------|--------------0----0--0--|-----0--0--0--0----0--0--|
-----0--0--0--0----0--0--|-----0--0--0--2----2--2--|-----2--2--2--2----2--2--|
-----0--0--0--0----0--0--|-----0--0--0--2----2--2--|-----2--2--2--2----2--2--|
-----2--2--2--2----2--2--|-----2--2--2--2----2--2--|-----2--2--2--2----2--2--|
-----2--2--2--2----2--2--|-----2--2--2--0----0--0--|-----0--0--0--0----0--0--|
-----0--0--0--0----0--0--|-----0--0--0--0----0--0--|-----0--0--0--0----0--0--|


  E  E  E  E  Q    E  E     E  E  E  E  Q    E  E     E  E  E  E  Q    E  E   
-----0--0--0--0----0--0--|-----0--0--0--2----2--2--|-----2--2--2-------------|
-----2--2--2--1----1--1--|-----1--1--1--3----3--3--|-----3--3--3--0----0--0--|
-----2--2--2--0----0--0--|-----0--0--0--2----2--2--|-----2--2--2--0----0--0--|
-----2--2--2--2----2--2--|-----2--2--2--0----0--0--|-----0--0--0--2----2--2--|
-----0--0--0--3----3--3--|-----3--3--3--0----0--0--|-----0--0--0--2----2--2--|
-----0--0--0--0----0--0--|-----0--0--0-------------|--------------0----0--0--|


  E  E  E  E  Q    E  E     E  E  E  E  Q    E  E     E  E  E  E  Q    E  E   
-------------------------|-------------------------|-------------------------|
-----0--0--0--0----0--0--|-----0--0--0--0----0--0--|-----0--0--0--0----0--0--|
-----0--0--0--0----0--0--|-----0--0--0--0----0--0--|-----0--0--0--0----0--0--|
-----2--2--2--2----2--2--|-----2--2--2--2----2--2--|-----2--2--2--2----2--2--|
-----2--2--2--2----2--2--|-----2--2--2--2----2--2--|-----2--2--2--2----2--2--|
-----0--0--0--0----0--0--|-----0--0--0--0----0--0--|-----0--0--0--0----0--0--|


  E  E  E  E  Q    E  E     E  E  E  E  Q    E  E     E  E  E  E  Q    E  E   
--------------0----0--0--|-----0--0--0--0----0--0--|-----0--0--0--0----0--0--|
-----0--0--0--2----2--2--|-----2--2--2--2----2--2--|-----2--2--2--1----1--1--|
-----0--0--0--2----2--2--|-----2--2--2--2----2--2--|-----2--2--2--0----0--0--|
-----2--2--2--2----2--2--|-----2--2--2--2----2--2--|-----2--2--2--2----2--2--|
-----2--2--2--0----0--0--|-----0--0--0--0----0--0--|-----0--0--0--3----3--3--|
-----0--0--0--0----0--0--|-----0--0--0--0----0--0--|-----0--0--0--0----0--0--|


  E  E  E  E  Q    E  E     E  E  E  E  Q    E  E     E  E  E  E  Q    E  E   
-----0--0--0--2----2--2--|-----2--2--2-------------|-------------------------|
-----1--1--1--3----3--3--|-----3--3--3--0----0--0--|-----0--0--0--0----0--0--|
-----0--0--0--2----2--2--|-----2--2--2--0----0--0--|-----0--0--0--0----0--0--|
-----2--2--2--0----0--0--|-----0--0--0--2----2--2--|-----2--2--2--2----2--2--|
-----3--3--3--0----0--0--|-----0--0--0--2----2--2--|-----2--2--2--2----2--2--|
-----0--0--0-------------|--------------0----0--0--|-----0--0--0--0----0--0--|


  E  E  E  E  Q    E  E     E  E  E  E  Q    E  E     E  E  E  E  Q    E  E   
-------------------------|--------------2----2--2--|-----2--2--2--0----0--0--|
-----0--0--0--0----0--0--|-----0--0--0--3----3--3--|-----3--3--3--1----1--1--|
-----0--0--0--0----0--0--|-----0--0--0--2----2--2--|-----2--2--2--0----0--0--|
-----2--2--2--2----2--2--|-----2--2--2--0----0--0--|-----0--0--0--2----2--2--|
-----2--2--2--2----2--2--|-----2--2--2--0----0--0--|-----0--0--0--3----3--3--|
-----0--0--0--0----0--0--|-----0--0--0-------------|--------------0----0--0--|


  E  E  E  E  Q    E  E     E  E  E  E  Q    E  E     E  E  E  E  Q    E  E   
-----0--0--0--3----3--3--|-----3--3--3--0----0--0--|-----0--0--0--0----0--0--|
-----1--1--1--0----0--0--|-----0--0--0--2----2--2--|-----2--2--2--1----1--1--|
-----0--0--0--0----0--0--|-----0--0--0--2----2--2--|-----2--2--2--0----0--0--|
-----2--2--2--0----0--0--|-----0--0--0--2----2--2--|-----2--2--2--2----2--2--|
-----3--3--3--2----2--2--|-----2--2--2--0----0--0--|-----0--0--0--3----3--3--|
-----0--0--0--3----3--3--|-----3--3--3--0----0--0--|-----0--0--0--0----0--0--|


  E  E  E  E  Q    E  E     E  E  E  E  Q    E  E     E  E  E  E  Q    E  E   
-----0--0--0--3----3--3--|-----3--3--3--0----0--0--|-----0--0--0--0----0--0--|
-----1--1--1--0----0--0--|-----0--0--0--2----2--2--|-----2--2--2--2----2--2--|
-----0--0--0--0----0--0--|-----0--0--0--2----2--2--|-----2--2--2--2----2--2--|
-----2--2--2--0----0--0--|-----0--0--0--2----2--2--|-----2--2--2--2----2--2--|
-----3--3--3--2----2--2--|-----2--2--2--0----0--0--|-----0--0--0--0----0--0--|
-----0--0--0--3----3--3--|-----3--3--3--0----0--0--|-----0--0--0--0----0--0--|


  E  E  E  E  Q    E  E     E  E  E  E  Q    E  E     E  E  E  E  Q    E  E   
-----0--0--0--0----0--0--|-----0--0--0-------------|--------------2----2--2--|
-----2--2--2--1----1--1--|-----1--1--1--0----0--0--|-----0--0--0--3----3--3--|
-----2--2--2--0----0--0--|-----0--0--0--0----0--0--|-----0--0--0--2----2--2--|
-----2--2--2--2----2--2--|-----2--2--2--2----2--2--|-----2--2--2--0----0--0--|
-----0--0--0--3----3--3--|-----3--3--3--2----2--2--|-----2--2--2--0----0--0--|
-----0--0--0--0----0--0--|-----0--0--0--0----0--0--|-----0--0--0-------------|


  E  E  E  E  Q    E  E     E  E  E  E  Q    E  E     E  E  E  E  Q    E  E   
-----2--2--2-------------|--------------2----2--2--|-----2--2--2--0----0--0--|
-----3--3--3--0----0--0--|-----0--0--0--3----3--3--|-----3--3--3--1----1--1--|
-----2--2--2--0----0--0--|-----0--0--0--2----2--2--|-----2--2--2--0----0--0--|
-----0--0--0--2----2--2--|-----2--2--2--0----0--0--|-----0--0--0--2----2--2--|
-----0--0--0--2----2--2--|-----2--2--2--0----0--0--|-----0--0--0--3----3--3--|
--------------0----0--0--|-----0--0--0-------------|--------------0----0--0--|

[ Tab from: http://www.guitartabs.cc/tabs/j/john_frusciante/ascension_tab.html ]
  E  E  E  E  Q    E  E     E  E  E  E  Q    E  E     E  E  E  E  Q    E  E   
-----0--0--0--3----3--3--|-----3--3--3--0----0--0--|-----0--0--0--0----0--0--|
-----1--1--1--0----0--0--|-----0--0--0--2----2--2--|-----2--2--2--1----1--1--|
-----0--0--0--0----0--0--|-----0--0--0--2----2--2--|-----2--2--2--0----0--0--|
-----2--2--2--0----0--0--|-----0--0--0--2----2--2--|-----2--2--2--2----2--2--|
-----3--3--3--2----2--2--|-----2--2--2--0----0--0--|-----0--0--0--3----3--3--|
-----0--0--0--3----3--3--|-----3--3--3--0----0--0--|-----0--0--0--0----0--0--|


  E  E  E  E  Q    E  E     E  E  E  E  Q    E  E     E  E  E  E  Q    E  E   
-----0--0--0-------------|--------------2----2--2--|-----2--2--2-------------|
-----1--1--1--0----0--0--|-----0--0--0--3----3--3--|-----3--3--3--0----0--0--|
-----0--0--0--0----0--0--|-----0--0--0--2----2--2--|-----2--2--2--0----0--0--|
-----2--2--2--2----2--2--|-----2--2--2--0----0--0--|-----0--0--0--2----2--2--|
-----3--3--3--2----2--2--|-----2--2--2--0----0--0--|-----0--0--0--2----2--2--|
-----0--0--0--0----0--0--|-----0--0--0-------------|--------------0----0--0--|


  E  E  E  E  Q    E  E     E  E  E  E  Q    E  E     E  E  E  E  Q    E  E   
-------------------------|-------------------------|-------------------------|
-----0--0--0--0----0--0--|-----0--0--0--0----0--0--|-----0--0--0--0----0--0--|
-----0--0--0--0----0--0--|-----0--0--0--0----0--0--|-----0--0--0--0----0--0--|
-----2--2--2--2----2--2--|-----2--2--2--2----2--2--|-----2--2--2--2----2--2--|
-----2--2--2--2----2--2--|-----2--2--2--2----2--2--|-----2--2--2--2----2--2--|
-----0--0--0--0----0--0--|-----0--0--0--0----0--0--|-----0--0--0--0----0--0--|


  E  E  E  E  Q    E  E     E  E  E  E  Q    E  E     Q    E  E  Q    E  E   
-------------------------|--------------3----3--3--|--2----2--2-------------|
-----0--0--0--0----0--0--|-----0--0--0--0----0--0--|--3----3--3--0----0--0--|
-----0--0--0--0----0--0--|-----0--0--0--0----0--0--|--2----2--2--0----0--0--|
-----2--2--2--2----2--2--|-----2--2--2--0----0--0--|--0----0--0--2----2--2--|
-----2--2--2--2----2--2--|-----2--2--2--2----2--2--|--0----0--0--2----2--2--|
-----0--0--0--0----0--0--|-----0--0--0--3----3--3--|-------------0----0--0--|


  E  E  E  E  Q    E  E     E  E  E  E  Q    E  E     E  E  E  E  Q    E  E   
-------------------------|-------------------------|--------------3----3--3--|
-----0--0--0--0----0--0--|-----0--0--0--0----0--0--|-----0--0--0--0----0--0--|
-----0--0--0--0----0--0--|-----0--0--0--0----0--0--|-----0--0--0--0----0--0--|
-----2--2--2--2----2--2--|-----2--2--2--2----2--2--|-----2--2--2--0----0--0--|
-----2--2--2--2----2--2--|-----2--2--2--2----2--2--|-----2--2--2--2----2--2--|
-----0--0--0--0----0--0--|-----0--0--0--0----0--0--|-----0--0--0--3----3--3--|


  Q    E  E  Q    E  E     E  E  E  E  Q    E  E     E  E  E  E  Q    E  E   
--2----2--2-------------|--------------3----3--3--|-----3--3--3--2----2--2--|
--3----3--3--0----0--0--|-----0--0--0--0----0--0--|-----0--0--0--3----3--3--|
--2----2--2--0----0--0--|-----0--0--0--0----0--0--|-----0--0--0--2----2--2--|
--0----0--0--2----2--2--|-----2--2--2--0----0--0--|-----0--0--0--0----0--0--|
--0----0--0--2----2--2--|-----2--2--2--2----2--2--|-----2--2--2--0----0--0--|
-------------0----0--0--|-----0--0--0--3----3--3--|-----3--3--3-------------|


  E  E  E  E  Q    E  E     E  E  E  E  Q    E  E     E  E  E  E  Q    E  E   
-----2--2--2-------------|-------------------------|--------------3----3--3--|
-----3--3--3--0----0--0--|-----0--0--0--0----0--0--|-----0--0--0--0----0--0--|
-----2--2--2--0----0--0--|-----0--0--0--0----0--0--|-----0--0--0--0----0--0--|
-----0--0--0--2----2--2--|-----2--2--2--2----2--2--|-----2--2--2--0----0--0--|
-----0--0--0--2----2--2--|-----2--2--2--2----2--2--|-----2--2--2--2----2--2--|
--------------0----0--0--|-----0--0--0--0----0--0--|-----0--0--0--3----3--3--|


  Q    E  E  Q    E  E     E  E  E  E  Q    E  E     E  E  E  E  Q    E  E   
--2----2--2-------------|--------------3----3--3--|-----3--3--3--2----2--2--|
--3----3--3--0----0--0--|-----0--0--0--0----0--0--|-----0--0--0--3----3--3--|
--2----2--2--0----0--0--|-----0--0--0--0----0--0--|-----0--0--0--2----2--2--|
--0----0--0--2----2--2--|-----2--2--2--0----0--0--|-----0--0--0--0----0--0--|
--0----0--0--2----2--2--|-----2--2--2--2----2--2--|-----2--2--2--0----0--0--|
-------------0----0--0--|-----0--0--0--3----3--3--|-----3--3--3-------------|


  E  E  E  E  Q    E  E     E  E  E  E  Q    E  E     E  E  E  E  Q    E  E   
-----2--2--2-------------|-------------------------|--------------0----0--0--|
-----3--3--3--0----0--0--|-----0--0--0--0----0--0--|-----0--0--0--1----1--1--|
-----2--2--2--0----0--0--|-----0--0--0--0----0--0--|-----0--0--0--0----0--0--|
-----0--0--0--2----2--2--|-----2--2--2--2----2--2--|-----2--2--2--2----2--2--|
-----0--0--0--2----2--2--|-----2--2--2--2----2--2--|-----2--2--2--3----3--3--|
--------------0----0--0--|-----0--0--0--0----0--0--|-----0--0--0--0----0--0--|


  E  E  E  E  Q    E  E     E  E  E  E  Q    E  E     E  E  E  E  Q    E  E   
-----0--0--0--3----3--3--|-----3--3--3--0----0--0--|-----0--0--0--0----0--0--|
-----1--1--1--0----0--0--|-----0--0--0--1----1--1--|-----1--1--1--2----2--2--|
-----0--0--0--0----0--0--|-----0--0--0--0----0--0--|-----0--0--0--2----2--2--|
-----2--2--2--0----0--0--|-----0--0--0--2----2--2--|-----2--2--2--2----2--2--|
-----3--3--3--2----2--2--|-----2--2--2--3----3--3--|-----3--3--3--0----0--0--|
-----0--0--0--3----3--3--|-----3--3--3--0----0--0--|-----0--0--0--0----0--0--|


  E  E  E  E  Q    E  E     E  E  E  E  Q    E  E     E  E  E  E  Q    E  E   
-----0--0--0--0----0--0--|-----0--0--0-------------|--------------0----0--0--|
-----2--2--2--1----1--1--|-----1--1--1--0----0--0--|-----0--0--0--2----2--2--|
-----2--2--2--0----0--0--|-----0--0--0--0----0--0--|-----0--0--0--2----2--2--|
-----2--2--2--2----2--2--|-----2--2--2--2----2--2--|-----2--2--2--2----2--2--|
-----0--0--0--3----3--3--|-----3--3--3--2----2--2--|-----2--2--2--0----0--0--|
-----0--0--0--0----0--0--|-----0--0--0--0----0--0--|-----0--0--0--0----0--0--|


  E  E  E  E  Q    E  E     E  E  E  E  Q    E  E     E  E  E  E  Q    E  E   
-----0--0--0--0----0--0--|-----0--0--0-------------|--------------0----0--0--|
-----2--2--2--1----1--1--|-----1--1--1--0----0--0--|-----0--0--0--2----2--2--|
-----2--2--2--0----0--0--|-----0--0--0--0----0--0--|-----0--0--0--2----2--2--|
-----2--2--2--2----2--2--|-----2--2--2--2----2--2--|-----2--2--2--2----2--2--|
-----0--0--0--3----3--3--|-----3--3--3--2----2--2--|-----2--2--2--0----0--0--|
-----0--0--0--0----0--0--|-----0--0--0--0----0--0--|-----0--0--0--0----0--0--|


  E  E  E  E  Q    E  E     E  E  E  E  Q    E  E     E  E  E  E  Q    Q     
-----0--0--0--0----0--0--|-----0--0--0-------------|--------------0----L----|
-----2--2--2--1----1--1--|-----1--1--1--0----0--0--|-----0--0--0--2----L----|
-----2--2--2--0----0--0--|-----0--0--0--0----0--0--|-----0--0--0--2----L----|
-----2--2--2--2----2--2--|-----2--2--2--2----2--2--|-----2--2--2--2----L----|
-----0--0--0--3----3--3--|-----3--3--3--2----2--2--|-----2--2--2--0----L----|
-----0--0--0--0----0--0--|-----0--0--0--0----0--0--|-----0--0--0--0----L----|


  W                   W                   W                   W                 
--L----------------|--L----------------|--L----------------|--L----------------|
--L----------------|--L----------------|--L----------------|--L----------------|
--L----------------|--L----------------|--L----------------|--L----------------|
--L----------------|--L----------------|--L----------------|--L----------------|
--L----------------|--L----------------|--L----------------|--L----------------|
--L----------------|--L----------------|--L----------------|--L----------------|


  W                  
--L----------------||
--L----------------||
--L----------------||
--L----------------||
--L----------------||
--L----------------||
Comments