John Frusciante - Anne Chords & Tabs

 

Anne Chords & Tabs

John Frusciante Chords & Tabs

Version: 2 Type: Tab 0 ratings
1 star 2 stars 3 stars 4 stars 5 stars
comments

Anne Tab

   
---------------------------------------------------------------------
			     Anne - John Frusicante
---------------------------------------------------------------------
Tabbed by: j_butterfly
Email: citizenofcork@hotmail.com

Tuning: EADGBe
  
    A  E  F#m   D
e|--------------0-----|
B|--2--0--2(2)-2--2--|
G|--2--1--2--2--3--3--| X2
D|--2--2--4--4--0--0--|
A|--0-----------------|
E|-----0--2--2--------|

    Dm Gm/Bb  Bb    A
e|------------------------|
B|--6--3------3--3--2--2--|
G|--7--0------3--3--2--2--| X2
D|-(7)-0-----(3)(3)(2)(2)-|
A|--5--1------1--1--0--0--|
E|------------------------|
  
    Gm  Em7  Gm/Bb  D/A
e|------------------------|
B|--11--8----8-8----7--7--|
G|--12--7----7-7----7--7--| X2
D|------------------------|
A|--10--7-----------------|
E|-----------6-6----5--5--|
  
    Gm Dsus4/F Cm/A  Amadd11
e|---------------------------|
B|--3--3-------4-----3-------|
G|--3--0-------5-----5-------| X2
D|---------------------------|
A|---------------------------|
E|--3--1-------5-----5-------|

    D
e|--------------------------3-----------------------------------|
B|-----3--------3--------3--4-----3-----------------------------|
G|--3-----3--2-----2--0--3-----3-----3--2--0--2--3--2-3-1-----| X3
D|-----------------------------------------------------------4--|
A|-----------------------------------------------------------5--|
E|--------------------------------------------------------------|
    
1.39: Strumming (patterns not shown)    
    Eb F  C7 Gm
e|--3-1-3-3--|
B|--4-1-5-3--|
G|--3-2--3-3--| X2
D|--5-3--5-5--|
A|--6-3--3-5--|
E|-----1-----3--|
[ Tab from: http://www.guitartabs.cc/tabs/j/john_frusciante/anne_tab_ver_2.html ]
    F  Gm Cm/A Ebmaj7 F  Gm Ebmaj7 F  C7 Ebmaj7 F  Gm F  Ebmaj7 F
e|--1-3-(3)----------1-3---------1-3---------1-3-1-------------|
B|--1-3-4----8------1-3-8------1-5-8------1-3-1-------------|
G|--2-3-5----7------2-3-7------2-3-7------2-3-2-------------|
D|--3-5-5----8------3-5-8------3-5-8------3-5-3-------------|
A|--3-5-0----6------3-5-6------3-3-6------3-5-3-------------|
E|--1-3-3-----------1-3---------1------------1-3-1-------------|

    Gm  Ebmaj7 F  Gm Ebmaj7 F C7  Ebmaj7 F  Gm  F  F7 Ebmaj7 F  Gm
e|-------------------------------------------------1----------------|
B|-------------------------------------------------4----------------|
G|-------------------------------------------------2----------------|
D|-------------------------------------------------1----------------|
A|-------------------------------------------------3----------------|
E|-------------------------------------------------1----------------|

    Ebmaj7 F  C7  Ebmaj7 F  Gm  F  Ebmaj7 F  Gm Ebmaj7 F  C7 Ebmaj7  
e|------------------------------------------------------------------|
B|------------------------------------------------------------------|
G|------------------------------------------------------------------|
D|------------------------------------------------------------------|
A|------------------------------------------------------------------|
E|------------------------------------------------------------------|

   F  Gm  F  F7  Ebmaj7 F  Gm  Ebmaj7 F C7  Ebmaj7 F  Gm  F  Ebmaj7
e|-----------1------------------------------------------------------|
B|-----------4------------------------------------------------------|
G|-----------2------------------------------------------------------|
D|-----------1------------------------------------------------------|
A|-----------3------------------------------------------------------|
E|-----------1------------------------------------------------------|

=====================================================================
Comments