John Frusciante - Anne Chords & Tabs

 

Anne Chords & Tabs

John Frusciante Chords & Tabs

Version: 1 Type: Tab 0 ratings
1 star 2 stars 3 stars 4 stars 5 stars
comments

Anne Tab

Author/Artist: John Frusciante
Title: Anne
Album: Curtains
Transcribed by: Christian Pietz
Email: experience-hendrix@web.de
Submitted to UG by: Dan Bogosian (UtBDan)
Email: dantheman3k@yahoo.com
Visit UtBDan's band's website at:
http://www.geocities.com/underthbed

For correct strumming, you have to listen
to the song. And use your fingers, no hybrid picking.

--------------------2---------------------------------------------------------|
-2-----0-----2------3---------------------------------------------------------|
-2-----1-----2------2---------------------------------------------------------|
-2-----2-----4------0---------------repeat...---------------------------------|
-0----------------------------------------------------------------------------|
-------0-----2----------------------------------------------------------------|
             T  (...use your thumb)

Anne you can't hide....

------------------------------------------------------------------------------|
-7-----3-----3-3-----2-2------------------------------------------------------|
-6-----0-----3-3-----2-2------------------------------------------------------|
(6)----0----(3-3)---(2-2)-----------repeat...---------------------------------|
-5-----1----------------------------------------------------------------------|
-------------1-------0--------------------------------------------------------|
I Never Got The Weight Off The Ground...

------------------------------------------------------------------------------|
-11----8-----8-8-----7-7------------------------------------------------------|
-12----7-----7-7-----7-7------------repeat...---------------------------------|
------------------------------------------------------------------------------|
-10---------------------------------------------------------------------------|
-------7-----6-------5--------------------------------------------------------|
       T     T       T

How Many Get The Way I Feel Now...

------------------------------------------------------------------------------|
-3-----3-----4-------3--------------------------------------------------------|
-3-----0-----5-------5--------------repeat...---------------------------------|
------------------------------------------------------------------------------|
-------1-------------5--------------------------------------------------------|
-3-----------5----------------------------------------------------------------|
 T           T

Nothing Is Coming My Way...
[ Tab from: http://www.guitartabs.cc/tabs/j/john_frusciante/anne_tab.html ]
--------------------------3---------------------------------------------------|
-------3-----3---------3--4-------------3-----3-------------------------------|
-3-------3-2---2-0-----3--------------3---3-2---2-0-2-3-2---------------------|
----------------------------------------------------------3-1------4--repeat--|
-------------------------------------------------------------------5----------|
------------------------------------------------------------------------------|
Hmmm.....The Gods Of The City....


------------------------------------------------------------------------------|
-3--------------1-------------8-------------3---------------------------------|
-3--------------2-------------9-------------3---------------------------------|
-5--------------3-------------8-------------5---------repeat...---------------|
-5--------------3-------------10------------5---------------------------------|
-3--------------1-------------8-------------3---------------------------------|
...cause it seems all the while


-----------------------3-------------------3----------------------------------|
-1------3-------4------3------1------3-----3-----1-----8----------------------|
-2------3-------5------3------2------3-----3-----2-----9----------------------|
-3------5-------5------5------3------5-----5-----3-----8----------------------|
-3------5--------------6------3------5-----6-----3-----10---------------------|
-1------3-------5-------------1------3-----------1-----8----------------------|
...me --  they give me disease....


-3----------------------------------------------------------------------------|
-3------1-------3------1------------------------------------------------------|
-3------2-------3------2------------------------------------------------------|
-5------3-------5------3------------------------------------------------------|
-6------3-------5------3------------------------------------------------------|
--------1-------3------1------------------------------------------------------|

----------------3--------------------------------------3----------------------|
----------------3------------------8-------------------3------1---4-----------|
-3------2-------3------3-----2-----9---------3----2----3------2---2-----------|
-5------3-------5------5-----3-----8---------5----3----5------3---1-----------|
-5------3-------5------5-----3-----10--------5----3----5------3---3-----------|
-3------1--------------3-----1-----8---------3----1----3------1---1-----------|
(Guitar Solo...)


----------------3--------------------------------------3----------------------|
----------------3------------------8-------------------3------1---------------|
-3------2-------3------3-----2-----9---------3----2----3------2---------------|
-5------3-------5------5-----3-----8---------5----3----5------3---------------|
-5------3-------5------5-----3-----10--------5----3----5------3---------------|
-3------1--------------3-----1-----8---------3----1----3------1---------------|
repeat.... but last time ends with...


---------------|
---3-----------|
---3-----------|
---5-----------|
---6-----------|
---------------|
Comments