John Frusciante - An Exercise Chords & Tabs

 

An Exercise Chords & Tabs

John Frusciante Chords & Tabs

Version: 1 Type: Bass Tab 0 ratings
1 star 2 stars 3 stars 4 stars 5 stars
comments

An Exercise Bass Tab

G---------------------------------------------------------------------|
D------------0-2-4--------------------------4-4-4-2-0-0-0-------------|
A--2--2-2-2------------4-5-4---2-2-2-2-2--2---------------4-----------|
E-------------------5-------------------------------------------------|

G--------------------------------------------------/7~~~~-------------|
D------------0-2-4--------------------------4-4-4---------------------|
A--2--2-2-2------------4-5-4---2-2-2-2-2--2---------------------------|
E-------------------5-------------------------------------------------|

G---------------------------------------------------------------------|
D--------------------------------------4-4-4/5------------------------|
A--2--2-2--2--5--5---------2--2-2-2-2---------------------------------|
E------------------5-5-5------------------------3-3-3-----------------|

G---------------------------------------------------------------------|
D------------0-2-4--------------------------/4-4-4-2-0-0-0------------|
A--2--2-2-2------------4-5-4---2-2-2-2-2--2----------------4/5--------|
E-------------------5-------------------------------------------------|

G---------------------------------------------------------------------|
D-----------------------/5--4-----------------------------------------|
A--9/----2--2--2--0--0---------2--------2---2------2-2-2-2----2-2-2-2-| 2x
E---------------------------------------------------------------------|

G---------------------------------------------------------------------|
D------------------------------------------------/4-4-4-2-0-0-0-------|
A---2--2-2--2------5--5-----------2--2-2--2-2-2-----------------4-----|
E------------------------5-5-5----------------------------------------|
[ Tab from: http://www.guitartabs.cc/tabs/j/john_frusciante/an_exercise_btab.html ]
G---------------------------------------------------------------------|
D------------0-2-4--------------------------4-4-4--5~~~~~-------------|
A--2--2-2-2------------4-5-4---2-2-2-2-2--2---------------------------|
E-------------------5-------------------------------------------------|

G---------------------------------------------------------------------|
D-----------------------/5--4-----------------------------------------|
A--9/----2--2--2--0--0---------2--------2---2------2-2-2-2----2-2-2-2-|
E---------------------------------------------------------------------|

G---------------------------------------------------------------------|
D------------/4--------------2----------------------------------------|
A------2---------0-0-0-0-0--------------------------------------------|
E--------------------------------3(x14)---(7)/12/(0)------------------|

G---------------------------------------------------------------------|
D------------0-2-4--------------------------4-4-4-2-0-0-0-------------|
A--2--2-2-2------------4-5-4---2-2-2-2-2--2---------------4-----------|
E-------------------5-------------------------------------------------|

G---------------------------------------------------------------------|
D------------------------------------------------/4-4-4-2-0-0-0-------|
A---2--2-2--2------5--5-----------2--2-2--2-2-2-----------------4-----|
E------------------------5-5-5----------------------------------------|

G---------------------------------------------------------------------|
D-----------------------/5--4-----------------------------------------|
A--9/----2--2--2--0--0---------2--------2---2------2-2-2-2----2-2-2-2-|
E---------------------------------------------------------------------|

G---------------------------------------------------------------------|
D---------------------------------------------------------------------|
A--4--2--5-----4----------4--2--5---0~~~~-----------------------------|
E-----------------2--3-------------------3~~~~------------------------|


thats all
enjoy


by notnormal
Comments