John Frusciante - A Name Chords & Tabs

 

A Name Chords & Tabs

John Frusciante Chords & Tabs

Version: 3 Type: Tab 0 ratings
1 star 2 stars 3 stars 4 stars 5 stars
comments

A Name Tab

   
e---------------------|
B---4---2---4--4-4--4-|
G---4---3---4--4-4--4-|
D---4-4-4---6--6-6--6-|
A-2---4---6---6-6-6---|
E-----2---4---4-4-4---|x2

e-----------------|
B---5x--4-4-2-4-4-|
G-6-6x--4-4-3-4-4-|
D-6-6x6-6-4-4-6-6-|
A-4-4x6-6-2-4-6-6-|
E-----4-4---2-4-4-|

e-----------------------------------------------------|
B-0xx4xx2xx4xx0xx4xx2xx4xx4xx2xx5xx4-44-4xx2xx5xx4-44-|
G-1xx4xx3xx4xx1xx4xx3xx4xx4xx3xx6xx4-44-4xx3xx6xx4-44-|
D-2xx4xx4xx6xx2xx4xx4xx6xx4xx4xx6xx6-66-4xx4xx6xx6-66-|
A-2xx2xx4xx6xx2xx2xx4xx6xx2xx4xx4xx6-66-2xx4xx4xx6-66-|
E-0xx---2xx4xxoxx---2xx4xx---2xx---4-44----2xx---4-44-|

e---------------------|
B---4---2---4--4-4--4-|
G---4---3---4--4-4--4-|
D---4-4-4---6--6-6--6-|
A-2---4---6---6-6-6---|
E-----2---4---4-4-4---|x2

e-----------------|
B---5x--4-4-2-4-4-|
G-6-6x--4-4-3-4-4-|
D-6-6x6-6-4-4-6-6-|
A-4-4x6-6-2-4-6-6-|
E-----4-4---2-4-4-|
[ Tab from: http://www.guitartabs.cc/tabs/j/john_frusciante/a_name_tab_ver_3.html ]
e-----------------------------------------------------|
B-0xx4xx2xx4xx0xx4xx2xx4xx4xx2xx5xx4-44-4xx2xx5xx4-44-|
G-1xx4xx3xx4xx1xx4xx3xx4xx4xx3xx6xx4-44-4xx3xx6xx4-44-|
D-2xx4xx4xx6xx2xx4xx4xx6xx4xx4xx6xx6-66-4xx4xx6xx6-66-|
A-2xx2xx4xx6xx2xx2xx4xx6xx2xx4xx4xx6-66-2xx4xx4xx6-66-|
E-0xx---2xx4xxoxx---2xx4xx---2xx---4-44----2xx---4-44-|

e--------------------------|
B--------------------------|
G-1xx1xx3xx4xx4xx1xx3xx4xx-|
D-2xx2xx4xx6xx6xx2xx4xx6xx-|
A-2xx2xx4xx6xx6xx2xx4xx6xx-|
E-0xx0xx2xx4xx4xx0xx2xx4xx-|

e---------------------------|
B---------------------------|
G-4xx1xx3xx4xx4xx1xx3-33333-|
D-6xx2xx4xx6xx6xx2xx4-44444-|
A-6xx2xx4xx6xx6xx2xx4-44444-|
E-4xx0xx2xx4xx4xx0xx2-22222-|

e-------------------------------------------------|
B-4--0--2--4--4--0--2--4-4--0--2--4--4--0--2--4~--|
G-4--1--3--4--4--1--3--4-4--1--3--4--4--1--3--4~--|
D-6--2--4--6--6--2--4--6-6--2--4--6--6--2--4--6~--|
A-6--2--4--6--6--2--4--6-6--2--4--6--6--2--4--6~--|
E-4--0--2--4--4--0--2--4-4--0--2--4--4--0--2--4~--|
Comments