John Frusciante - A Firm Kick Chords & Tabs

 

A Firm Kick Chords & Tabs

John Frusciante Chords & Tabs

Version: 1 Type: Tab 0 ratings
1 star 2 stars 3 stars 4 stars 5 stars
comments

A Firm Kick Tab

   
-------------------------------------------------------------------------------
			     A Firm Kick - John Frusciante
-------------------------------------------------------------------------------
Tabbed by: Brenton Chattin
Email: annihilative1@hotmail.com

Tuning: Standard

Verse 1. 0:01 - "A firm kick in the pants"

      A          E       B         D     E
e|---------------------------------------------------------------------------|
B|---------------9-9-9-------------7-7---9-9---------------------------------|
G|----6-6---6----9-9-9---8--8--8---7-7---9-9---------------------------------| X2
D|----7-7---7----9-9-9---9--9--9---7-7---9-9---------------------------------|
A|----7-7---7----7-7-7---9--9--9---5-5---7-7---------------------------------|
E|-5--5-5-5-5------------7--7--7---------------------------------------------|

Bridge 0:24 - "Look out, for yourself tonight"

   F#m               D
e|---------------------------------------------------------------------------|
B|-------------------7-7-7-7-7-7-7-7-----------------------------------------|
G|-2-2-2-2-2-2-2-2---7-7-7-7-7-7-7-7-----------------------------------------|
D|-4-4-4-4-4-4-4-4---7-7-7-7-7-7-7-7-----------------------------------------|
A|-4-4-4-4-4-4-4-4---5-5-5-5-5-5-5-5-----------------------------------------|
E|-2-2-2-2-2-2-2-2-----------------------------------------------------------|


Chorus  0:34 - "I never meant what I said to you"

   A    E    B           F#m
e|---------------------------------------------------------------------------|
B|------9-9------------------------------------------------------------------|
G|-6-6--9-9--8--8-8--8---2-2-------------------------------------------------|
D|-7-7--9-9--9--9-9--9---4-4-------------------------------------------------|
A|-7-7--7-7--9--9-9--9---4-4-------------------------------------------------|
E|-5-5-------7--7-7--7---2-2-------------------------------------------------|
										 X2
e|---------------------------------------------------------------------------|
B|------9-9----7-------------------------------------------------------------|
G|-6-6--9-9--8-7-------------------------------------------------------------|
D|-7-7--9-9--9-7-------------------------------------------------------------|
A|-7-7--7-7--9-5-------------------------------------------------------------|
E|-5-5-------7---------------------------------------------------------------|

Verse 2. 1:00 - "A little time to adjust"

e|---------------------------------------------------------------------------|
B|---------------9-9-9-------------7-7---9-9---------------------------------|
G|----6-6---6----9-9-9---8--8--8---7-7---9-9---------------------------------| X2
D|----7-7---7----9-9-9---9--9--9---7-7---9-9---------------------------------|
A|----7-7---7----7-7-7---9--9--9---5-5---7-7---------------------------------|
E|-5--5-5-5-5------------7--7--7---------------------------------------------|

Bridge 1:22 - "Forgone, stressed at the light"

   F#m               D
e|---------------------------------------------------------------------------|
B|-------------------7-7-7-7-7-7-7-7-----------------------------------------|
G|-2-2-2-2-2-2-2-2---7-7-7-7-7-7-7-7-----------------------------------------|
D|-4-4-4-4-4-4-4-4---7-7-7-7-7-7-7-7-----------------------------------------|
A|-4-4-4-4-4-4-4-4---5-5-5-5-5-5-5-5-----------------------------------------|
E|-2-2-2-2-2-2-2-2-----------------------------------------------------------|

Chorus 1:35 - "I never say what I aim to do"
[ Tab from: http://www.guitartabs.cc/tabs/j/john_frusciante/a_firm_kick_tab.html ]
   A    E    B           F#m
e|---------------------------------------------------------------------------|
B|------9-9------------------------------------------------------------------|
G|-6-6--9-9--8--8-8--8---2-2-------------------------------------------------|
D|-7-7--9-9--9--9-9--9---4-4-------------------------------------------------|
A|-7-7--7-7--9--9-9--9---4-4-------------------------------------------------|
E|-5-5-------7--7-7--7---2-2-------------------------------------------------|
										 X2
e|---------------------------------------------------------------------------|
B|------9-9----7-------------------------------------------------------------|
G|-6-6--9-9--8-7-------------------------------------------------------------|
D|-7-7--9-9--9-7-------------------------------------------------------------|
A|-7-7--7-7--9-5-------------------------------------------------------------|
E|-5-5-------7---------------------------------------------------------------|

Bridge 1:57 - "No I'm not disguising"

e|---------------------------------------------------------------------------|
B|-9-9-9--7-7----------------------------------------------------------------|
G|-9-9-9--7-7----------------------------------------------------------------| X3
D|-9-9-9--7-7----------------------------------------------------------------|
A|-7-7-7--5-5----------------------------------------------------------------|
E|---------------------------------------------------------------------------|

Solo 2:05 - Strange effect, I think it is Filter Modelling

e|-12-12-12-12-12------------------------------------------------------------|
B|---------------------------------------------------------------------------|
G|---------------------------------------------------------------------------| Tremolo picking
D|---------------------------------------------------------------------------|
A|---------------------------------------------------------------------------|
E|---------------------------------------------------------------------------|

2:17 - "I will play some, light from the sun"

e|---------------------------------------------------------------------------|
B|--------5-5--9-9-9---------------------------------------------------------|
G|-2-2-2--6-6--9-9-9--8-8----------------------------------------------------|
D|-4-4-4--6-6--9-9-9--9-9----------------------------------------------------|
A|-4-4-4--4-4--7-7-7--9-9----------------------------------------------------|
E|-2-2-2--------------7-7----------------------------------------------------|

Verse 3. 3:06 - "When I revisit the past"

e|---------------------------------------------------------------------------|
B|---------------9-9-9-------------7-7---9-9---------------------------------|
G|----6-6---6----9-9-9---8--8--8---7-7---9-9---------------------------------| X2
D|----7-7---7----9-9-9---9--9--9---7-7---9-9---------------------------------|
A|----7-7---7----7-7-7---9--9--9---5-5---7-7---------------------------------|
E|-5--5-5-5-5------------7--7--7---------------------------------------------|


Bridge 3:30 - "How'd we, pretty up that speech"

   F#m               D
e|---------------------------------------------------------------------------|
B|-------------------7-7-7-7-7-7-7-7-----------------------------------------|
G|-2-2-2-2-2-2-2-2---7-7-7-7-7-7-7-7-----------------------------------------|
D|-4-4-4-4-4-4-4-4---7-7-7-7-7-7-7-7-----------------------------------------|
A|-4-4-4-4-4-4-4-4---5-5-5-5-5-5-5-5-----------------------------------------|
E|-2-2-2-2-2-2-2-2-----------------------------------------------------------|


Chorus 3:41 - "I've never done what I set out to do"

   A    E    B           F#m
e|---------------------------------------------------------------------------|
B|------9-9------------------------------------------------------------------|
G|-6-6--9-9--8--8-8--8---2-2-------------------------------------------------|
D|-7-7--9-9--9--9-9--9---4-4-------------------------------------------------|
A|-7-7--7-7--9--9-9--9---4-4-------------------------------------------------|
E|-5-5-------7--7-7--7---2-2-------------------------------------------------|
										 X2
e|---------------------------------------------------------------------------|
B|------9-9----7-------------------------------------------------------------|
G|-6-6--9-9--8-7-------------------------------------------------------------|
D|-7-7--9-9--9-7-------------------------------------------------------------|
A|-7-7--7-7--9-5-------------------------------------------------------------|
E|-5-5-------7---------------------------------------------------------------|

Bridge 4:05 - "I'll never forget"

e|---------------------------------------------------------------------------|
B|-9-9-9--7-7----------------------------------------------------------------|
G|-9-9-9--7-7----------------------------------------------------------------| X6
D|-9-9-9--7-7----------------------------------------------------------------|
A|-7-7-7--5-5----------------------------------------------------------------|
E|---------------------------------------------------------------------------|

End on

     F#m
e|-----------|
B|-----------|
G|----2------|
D|----4------|
A|----4------|
E|----2------|


| /  slide up
| \  slide down
| h  hammer-on
| p  pull-off
| ~  vibrato
| +  harmonic
| x  Mute note
===============================================================================
Comments