John Frusciante - 666 Chords & Tabs

 

666 Chords & Tabs

John Frusciante Chords & Tabs

Version: 2 Type: Tab 0 ratings
1 star 2 stars 3 stars 4 stars 5 stars
comments

666 Tab

   
                     666 tab by John Frusciante

Tabbed by: j butterfly
Email: citizenofcork@hotmail.com

Tuning: Standard (EADGBe)

Intro & Verse Riff
     A  E    C       D  G              E  C    G       A  E
e|-------------------------------------------------------------------|
B|-------------------------------------------------------------------|
G|------9-9--5-5-5-5/7--------------------5-5------------------------|
D|---7--9-9--5-5-5-5/7--5--------------2--5-5--5-5-5-5/7--2----------|
A|---7--7-7--3-3-3-3/5--5--------------2--3-3--5-3-3-5/7--2----------|
E|---5------------------3--------------0-------3-3-3-3/5--0----------|

Pre Chorus
("Then down the side wall/Everyone I meet is a laughing star")
     A (pm)
e|-------------------------------------------------------------------|
B|-------------------------------------------------------------------|
G|-------------------------------------------------------------------|
D|---7-7-7-7-7-7-7-7-7-7-7-7-7-7-7-7---------------------------------|
A|---7-7-7-7-7-7-7-7-7-7-7-7-7-7-7-7---------------------------------|
E|---5-5-5-5-5-5-5-5-5-5-5-5-5-5-5-5---------------------------------|
[ Tab from: http://www.guitartabs.cc/tabs/j/john_frusciante/666_tab_ver_2.html ]
Chorus
("The drop/Who dropped")
   A  C   A  C   E  D  C
e|-------------------------------------------------------------------|
B|-------------------------------------------------------------------|
G|---------------9--7--5---------------------------------------------|
D|-7--10--7--10--9--7--5---------------------------------------------|
A|-7--10--7--10--7--5--3---------------------------------------------|
E|-5--8---5--8-------------------------------------------------------|

Outro
("You all should walk through a poster")
   D    C    E                        F    C    E
e|-------------------------------------------------------------------|
B|-7-7--5-5--9-9-9-9-------------------------------------------------|
G|-7-7--5-5--9-9-9-9-----------------------5-5-----------------------|
D|-7-7--5-5--9-9-9-9------------------3-3--5-5--2-2-2-2--------------|
A|-5-5--3-3--7-7-7-7------------------3-3--3-3--2-2-2-2--------------|
E|------------------------------------1-1-------0-0-0-0--------------|

Solo
   E Pentatonic
e|-1512-------------------------------------------------------------|
B|---------1512-----------------------------------------------------|
G|-----------------1412---------------------------------------------|
D|-------------------------1412-------------------------------------|
A|---------------------------------1412-----------------------------|
E|-----------------------------------------1512---------------------|

| /    slide up
| (pm) palm mute

======================================================================
Comments