John Farnham - Burn For You Chords & Tabs

 

Burn For You Chords & Tabs

John Farnham Chords & Tabs

Version: 1 Type: Tab 0 ratings
1 star 2 stars 3 stars 4 stars 5 stars
comments

Burn For You Tab

   
#----------------------------------PLEASE NOTE---------------------------------#
#This file is the author's own work and represents their interpretation of the #
#song. You may only use this file for private study, scholarship, or research. #
#------------------------------------------------------------------------------##
From: "Wilhelmsen, Lee F." 
Date:          Mon, 18 Sep 1995 11:38:11 GMT+1

John Farnham: "Burn for you"

I only heard this song a few days ago while auditioning for a band. I was 
asked by the band to learn the song for practice. Hopefully I got it right.
The song is taken from the John Farnham album "Full house " from 1991.

I have added some loose strings where avaiable to get a kind of "loose" 
and "floating" feel to it. The guitarist on the album uses a bit of 
reverb/chorus and achieves a nice floating/12 string kind of sound.

The lyrics and guitar sequence follow after the tab.

Good luck

	Lee Francis


  Intro:
e|-------2----------------------------|--------------------------------------|
b|-------0--------0--------------0----|---4h5--0-------0---------------0-----|
g|-------1--------4--------6--6-----6-|---4----4-------4---------6--6----6---|
D|----2-----------2--------4--4-------|---4------------2---------4--4------4-|
A|-------------4--------6-------------|-------------4---------6--------------|
E|-0--------2--------4----------------|-0--------2-------2-4-----------------|

e|-------2--------------------------------|----------------------------------|
b|-------0--------0---------------0-------|-0--------0-----------0-----------|
g|-------1--------4---------6--6-----6----|-------1-----6-----6--------------|
D|----2-----------2---------4--4--------4-|----2-----------4-----------------|
A|--------------4--------6----------------|----------------------------------|
E|-0-------0-2------2-4-------------------|-0-----------6--------------------|


  Verse:
e|----------------------------------2----------------------------------------|
b|-0--------0-----------0--0-------------------0-----------0-----------------|
g|-------1-----3-----3--------3-------------3-----6-----6-----------6--------|
D|----2-----------4--------------4-------4-----------4-----------4-----4-----|
A|---------------------------------------------------------------------------|
E|-0-----------2-----------4-----------4----------6-----------6--------------|

e|---------------|----------------------------------0-|-------0-------0------|
b|-------0--0----|-------7-------7----7----------0--0-|-------5-------5------|
g|-------10-10---|----------------------------3--4--4-|-------6---------6----|
D|-------9--9----|----9-------9------------6----------|----6--------6-----6--|
A|----9----------|-6-------6-------6------------------|-4--------4-----------|
E|-7-----------7-|----------------------0-----------0-|----------------------|

  1st verse                2nd + 3rd verses
e|------------4-----------|------------4--6--|
b|---------7-------7------|---------7--------|
g|------6-------------6---|------6-----------|
D|--/4----------4---------|--/4-----------4--|
A|------------------------|------------------|
E|------------------------|------------------|


Chorus:
  Repeat bar 3 times
e|--------2---------------------------------|--------------------------------|
b|--------0----------0---------------0------|--0--------0-----------0--------|
g|*-------1----------4----------6-6----6---*|--------1-----6-----6-----------|
D|*----2-------------2----------4-4------4-*|-----2-----------4--------------|
A|----------------4----------6--------------|--------------------------------|
E|--0--------0-2--------2-4-----------------|--0-----------6-----------------|

[ Tab from: http://www.guitartabs.cc/tabs/j/john_farnham/burn_for_you_tab.html ]
  Bridge intro:             Bridge:  
e|-------------------------|--------0--------0-----------------------0-------|
b|--4--------4--2--------2-|--------5--------5--------------7--------5-------|
g|-----4-----------2-------|--------6--------6-----4-----6--------6--6-------|
D|--------4-----------2----|-----6--------6-----------4--------4-------------|
A|--2-----------0----------|--4--------4--------4----------------------------|
E|-------------------------|-------------------------------------------------|

e|--------------------------------2--0--|---------0-----------------2-2--0---|
b|--------4--------4--------------0--0--|---------5--------0--------0-0--0---|
g|--------4--------4--------------1--1--|---------6--------8--------3-1--1---|
D|-----4--------4--------4-----2--------|------6--------8--------2-----------|
A|--2--------2--------2-----------------|---4--------6-----------------------|
E|--------------------------0-----------|---------------------0--------------|

e|--------0-----------------0--------0-----------0-------<7>-----------------|
b|--------5--------0-----------0-------------<7>-----------------------------|
g|--------6--------8---------------------------------------------------------|
D|-----6--------8--------6--------------6-----------6------------------------|
A|--4--------6--------9-----------9--------9-----------9---------------------|
E|---------------------------------------------------------------------------|


  End:
e|--------------------------------------2----------------------2-------------|
b|--4--------4-----------------------0--0----------------------0-------------|
g|-----4--------4-----------------1----------------------3-------------------|
D|--------4--------4-----------2----------------------2----------------------|
A|--2------------------------------------------------------------------------|
E|--------------------------0-----------0----------2--------2----------------|

e|-----------2-----------2------------------------------2--------------------|
b|-----------0-----0-----0------------------------------0--------------------|
g|--------3-----------3------- Repeat   ----------------3--------------------|
D|-----4---------------------- sequence ----------------4--------------------|
A|---------------------------------------------------------------------------|
E|--4-----------4---------------------------------------4--------------------|

 : harmonics
 h  : hammer on
 /  : slide up to note


Lyrics & guitar sequence:

[Intro]

[Verse]		Verse 1 Got myself into some trouble tonight
			Guess I'm just feelin' blue
			It's been so long since I've seen your face
			This distance between me and you

[Verse]		Verse 2 That voice you show me is not the one that I know
			I must be strung out of what I do
			Don't hang up again
			There's nothing else I know how to do

[Chorus]	Chorus	Burn for you
			What am I gonna do
			Burn for you

[Verse]		Verse 3	I guess it feels like your always alone
			And I feel that way too
			It's so hard to explain to you
			Please understand what I do

[Chorus]	Chorus	Burn for you
			What am I gonna do
			Burn for you
			Burn for you

[Bridge intro]

[Bridge]	Bridge	Took my trouble to a bar tonight
			For another point of view
			But there's nothing new
			I'm missing you

[Chorus]	Chorus	Burn for you
			What am I gonna do
			Burn for you
			Burn for you

[Bridge intro]

[Chorus]	Chorus	Burn for you
			What am I gonna do
			Burn for you

[Chorus]	Chorus	Burn for you
			What am I gonna do
			Burn for you
			Burn for you

[End]		End	Burn... for... you...


Guitar and lyrics transcribed by Lee Francis Wilhelmsen
Friday 7 September 1995.
19(C)95

E-Mail address:
	francis@GRIBB.hsr.no
	francis@hsr.no

Snail mail address:
	Lee Francis Wilhelmsen
	Erleveien 4
	4340 Bryne
	Norway


Comments