John Entwistle - Love Is A Heart Attack Chords & Tabs

 

Love Is A Heart Attack Chords & Tabs

John Entwistle Chords & Tabs

Version: 1 Type: Bass Tab 0 ratings
1 star 2 stars 3 stars 4 stars 5 stars
comments

Love Is A Heart Attack Bass Tab

Artist:John Entwistle
Song:Love Is A Heart Attack
Album:Too Late The Hero
Tabbed By:Gary Hricewich
E-mail:snapper2001@msn.com
[ Tab from: http://www.guitartabs.cc/tabs/j/john_entwistle/love_is_a_heart_attack_btab.html ]
                                                              
     Part 1                                    End Part 1  3x
G---|------------------------------------------------------|-|
D---|*----------------------------------------------------*|-|
A---|*----5-5--5-5--5-5--5-4-3-2--1-1--1-1--1-1--1-2-3-4--*|-|
E---|---/--------------------------------------------------|-|
                                                              
                                                
    
G----------------------------------------------|
D----------------------------------------------|
A---5-5--5-5--5-5--5-4-3-2--1-1--1-1--1-1--1-1-|
E----------------------------------------------|
                                                
                                                                      
     Part 2                                            End Part 2  2x
G---|---------------|--------------|--------------|----------------|-|
D---|*------5-------|------7-------|------3-------|------5--------*|-|
A---|*--------5-----|--------7-----|--------3-----|--------5------*|-|
E---|--3-3------3-3-|-5-5------5-5-|-1-1------1-1-|-3-3------3-3---|-|
                                                                      
                                                                 
 Part 1 1x                                             Part 2 2x
G---------|--------------------------------------------|------|-|
D---------|--------------------------------------------|*----*|-|
A---------|-5-5--5-5--5-5--5-4-3-2--1-1--1-1--1-1--1-1-|*----*|-|
E---------|--------------------------------------------|------|-|
                                                                 
                                                                             
                                                  2x                      2x
G---|-------3-7-|------0-3-|------2-5-|-----------|-|---------------------|-|
D---|*-5--5-----|-1--1-----|-3--3-----|-0--0-3-3-*|-|*--------3--------5-*|-|
A---|*----------|----------|----------|----------*|-|*-3--5-6---5--7-8---*|-|
E---|-----------|----------|----------|-----------|-|---------------------|-|
                                                                             
                                                          
   
G--------------------------------------------------------|
D---7-7-7-7-7\-7-7-7-7-7\--7-7-7-7-7-7-7-7-7-7-7-7-7-7-7-|
A--------------------------------------------------------|
E--------------------------------------------------------|
                                                          
                                          
  
G----------------------------------------|
D----------------------------------------|
A---5-5--5-5--4-3-2-1--1-1--1-1--1-2-3-4-|
E----------------------------------------|
                                          
                                                        
                                [p]  Part 1          8x
G--------------------------------5-|-----------------|-|
D----------------------------------|*---------------*|-|
A---5-5--5-5--4-3-2-1--1-1--1-1----|*---------------*|-|
E----------------------------------|-----------------|-|
Comments