John Denver - Leaving On A Jet Plane Chords & Tabs

 

Leaving On A Jet Plane Chords & Tabs

John Denver Chords & Tabs

Version: 2 Type: Tab 0 ratings
1 star 2 stars 3 stars 4 stars 5 stars
comments

Leaving On A Jet Plane Tab

This tabulature is a great one! Very Easy to play too!

Leaving on a jet plane-John Denver


E---------------------------------------------------------------------------
B---------------------------------------------------------------------------
G----0---3----2----------------------0---------3--2-----------------------0-
D-3----------------3--------0-0---3--------3------------3-------0----3------
A------------------------3-----------------------------------3--------------
E---------------------------------------------------------------------------
 All my bags are packed I'm ready to go   I'm standing here outside your door


E---------------------------------------------------------------------------
B---------------------------------------------------------------------------
G-----3---2---0-------3--2---0--------0----------0--3----2------------------
D--3--------------3--------------3----------3----------------3--------------
A-----------------------------------------------------------------3------3--
E---------------------------------------------------------------------------
   I hate to wake you up to say good-bye    But the dawn is break-in   It's



E---------------------------------------------------------
B---------------------------------------------------------
G---------0---------3--2------------------------------0---
D---0-3---------3-----------3-------------0---0---3-------
A-------------------------------3---3---------------------
E---------------------------------------------------------
   Early morn,  the taxi's wait-in  he's blow-in his horn   




E-------------------------------------
B-------------------------------------
G-----3-2---0------3---2--0---------0-
D---3----------3---------------3------
A-------------------------------------
E-------------------------------------
   already I'm so lonesome I could die



Chorus
[ Tab from: http://www.guitartabs.cc/tabs/j/john_denver/leaving_on_a_jet_plane_tab_ver_2.html ]
E---------------------------------------------------------------
B---1---1-------1-----------------1------------1----------------
G-----------2-------3-----2-----------3---2-----------3---2-----
D----------------------------3--------------------------------3-
A---------------------------------------------------------------
E---------------------------------------------------------------
    So kiss me and smile for me  Tell me that you'll wait for me



E---------------------------------------------------------------------------
B----1------------1--------------------------1----1---1------3--1-------1---
G--------3---2-----------3-2---0-----0------------------------------3-------
D---------------------------------3-----------------------3-----------------
A---------------------------------------------------------------------------
E---------------------------------------------------------------------------
    Hold me like you'll never let me go     Cause I'm leaving on a jet plane



E---------------------------------------------------------------------------
B--1----------1-----------------------1-------------------------------------
G--------2---------3---2-------------------3---2---0------0----{FINALE}-----
D--------------------------3---0-----------------------3--------3-2-0-------
A--------------------------------3------------------------------------3-----
E---------------------------------------------------------------------------
  Don't know when I'll be back again  Oh, babe, I hate to go {last time only}



verse 2  
 There's so many times I've let you down, So many times I've played around,
 I tell you now, that they don't mean a thing.
 Ev'ry place I go I'll think of you, Ev'ry song I sing I'll sing for you.
 When I come back I'll bring your wedding ring.

Chorus

verse 3
 Now the time has come to leave you, One more time let me kiss you,
 Then close your eyes, I'll be on my way.
 Dream about the days to come When I won't have to leave alone,
About the times I won't have to say:

Chorus with added Finale
Comments