John Denver - Leaving On A Jet Plane Chords & Tabs

 

Leaving On A Jet Plane Chords & Tabs

John Denver Chords & Tabs

Version: 1 Type: Tab 0 ratings
1 star 2 stars 3 stars 4 stars 5 stars
comments

Leaving On A Jet Plane Tab

Leaving on a Jet Plane  John Denver

:_: = 3rd time only
;_; = 2nd time only


      Verses

E---------------------------------------------------------------------------- 
B--0-3-2-------------0-:3:------3-2---------0-:3:-----3-2-0---3-2-0---0------ 
G-2------2---------2----------2-----2-----2---------2-------2-------2-------- 
D----------2--3-3---------------------2-3------------------------------------ 
A---------------------------------------------------------------------------- 
E---------------------------------------------------------------------------- 
[ Tab from: http://www.guitartabs.cc/tabs/j/john_denver/leaving_on_a_jet_plane_tab.html ]
E----------------------------------------------------------------------------
B---0-3-2-----------0-----------3-2-------------0------3-2-0---3-2-0---0----- 
G-2-------2-------2-------;2;-2-----2---------2------2-------2-------2---2-1- 
D-----------2-2-3---------------------2-2-3-3--------------------------------
A----------------------------------------------------------------------------
E----------------------------------------------------------------------------

     Chorus

E-0-0-----0----------0-----0----------0-----0-----------------0-0-0-----2-0-- 
B-------2---3-2--------3-2---3-2-2------3-2---3-2---0---0------------2------3 
G---------------2-------------------------------------2---------------------- 
D----------------------------------------------------------------------------
A----------------------------------------------------------------------------
E----------------------------------------------------------------------------

E-0-----0---0---0----------0-------------------------------------------------
B---------2---3---3-2--------3-2-0---0---------------------------------------
G---------------------2------------2-----2-1---------------------------------
D------------------------------------------------4-2-------------------------
A----------------------------------------------------------------------------
E----------------------------------------------------------------------------

Verse x1
Chorus x1
Verse x1
Chorus x1
Verse x1
Chorus x1

(very simple)
Comments