John Coltrane - Lazybird Chords & Tabs

 

Lazybird Chords & Tabs

John Coltrane Chords & Tabs

Version: 1 Type: Tab 0 ratings
1 star 2 stars 3 stars 4 stars 5 stars
comments

Lazybird Tab

   
#----------------------------------PLEASE NOTE---------------------------------#
#This file is the author's own work and represents their interpretation of the #
#song. You may only use this file for private study, scholarship, or research. #
#------------------------------------------------------------------------------##


Artist: John Coltrane
Album: Blue Train
Tab By: Mike Sarafinas

heres the enitre melody, watch for the repeat and 2nd ending in the second stanza

    Q=250
   4/4
     Gtr I
     H.     Q    H     H      W         H    Q  E E
||-------------|------------|---------|--------------|
||o------------|------------|---------|--------------|
||-------------|-7----------|---------|--------------|
||---9------7--|------10----|-8-------|------5--6-8--|
||o------------|------------|---------|-8------------|
||-------------|------------|---------|--------------|


                                              1.
  +H     Q  E E   +H     Q  E E   +W           +H.       Q
|---------------|---------------|------------|--------------||
|---------------|---------------|------------|-------------o||
|-------------5-|-(5)-------5-7-|-(7)--------|-(7)----------||
|-(8)----5--8---|--------7------|------------|--------------||
|---------------|---------------|------------|-------------o||
|---------------|---------------|------------|--------------||


  2.
                            |---3---|  |--3--|
  +H.      Q    W          +Q   Q   Q  Q  Q  Q   W
|-------------|----------|---------------------|------|
|-------------|----------|----------------7----|------|
|-(7)---------|-7--------|-(7)---------7-----9-|-6----|
|----------9--|----------|------9--10----------|------|
|-------------|----------|---------------------|------|
|-------------|----------|---------------------|------|


                             |--3---|   |--3--|
  +W            W           +Q   Q  Q   Q  Q  Q   W
|------------|-----------|----------------------|------|
|------------|-----------|----------------------|------|
|-(6)--------|-----------|-----------------9--7-|------|
|------------|-10--------|-(10)--7--9--10-------|-9----|
|------------|-----------|----------------------|------|
|------------|-----------|----------------------|------|

[ Tab from: http://www.guitartabs.cc/tabs/j/john_coltrane/lazybird_tab.html ]
  +W           H.      Q    H     H      W
|------------|------------|------------|------|
|------------|------------|------------|------|
|------------|------------|-7----------|------|
|-(9)--------|-9-------7--|------10----|-8----|
|------------|------------|------------|------|
|------------|------------|------------|------|


  H    Q  E E   +H     Q  E E   +H     Q  E E   +W       +W
|-------------|---------------|---------------|--------|-------*|
|-------------|---------------|---------------|--------|-------*|
|-------------|-------------5-|-(5)-------5-7-|-(7)----|-(7)---*|
|------5--6-8-|-(8)----5--8---|--------7------|--------|-------*|
|-8-----------|---------------|---------------|--------|-------*|
|-------------|---------------|---------------|--------|-------*|


Duration Legend
---------------
W - whole; H - half; Q - quarter; E - 8th; S - 16th; T - 32nd; X - 64th; a - acciaccatura
+ - note tied to previous; . - note dotted; .. - note double dotted
Uncapitalized letters represent notes that are staccato (1/2 duration)
Irregular groupings are notated above the duration line
Duration letters will always appear directly above the note/fret number it represents the
duration for.  Duration letters with no fret number below them represent rests.  Multi-
bar rests are notated in the form Wxn, where n is the number of bars to rest for.  Low
melody durations appear below the staff

Tablature Legend
----------------
 h   - hammer-on
 p   - pull-off
 b   - bend
 pb  - pre-bend
 r   - bend release (if no number after the r, then release immediately)
 /\  - slide into or out of (from/to "nowhere")
 s   - legato slide
 S   - shift slide
  - natural harmonic
[n]  - artificial harmonic
n(n) - tapped harmonic
 ~   - vibrato
 tr  - trill
 T   - tap
 TP  - trem. picking
 PM  - palm muting
\n/  - tremolo bar dip; n = amount to dip
 \n  - tremolo bar down
 n/  - tremolo bar up
/n\  - tremolo bar inverted dip
 =   - hold bend; also acts as connecting device for hammers/pulls
   - volume swell (louder/softer)
 x   - on rhythm slash represents muted slash
 o   - on rhythm slash represents single note slash

Misc Legend
-----------
 |  - bar
||  - double bar
||o - repeat start
o|| - repeat end
*|  - double bar (ending)
 :  - bar (freetime)
 $  - Segno
 &  - Coda
Tempo markers -  = BPM(8/16=s8/s16), where s8 = swing 8ths, s16 = swing 16ths


***************************************************************************************
* Generated using Power Tab Editor by Brad Larsen - http://powertab.guitarnetwork.org *
***************************************************************************************
Comments