John Carpenter - Halloween Theme Chords & Tabs

 

Halloween Theme Chords & Tabs

John Carpenter Chords & Tabs

Version: 1 Type: Tab 0 ratings
1 star 2 stars 3 stars 4 stars 5 stars
comments

Halloween Theme Tab

SONG:  Halloween Theme Song
ARTIST:  John Carpenter

Ok, this song is originally intended for the piano.  The main rythym is played quite fast followed by a 
background and a
drum machine I suppose.  Sounds really cool if you can get them in sync.


Guitar 1 (main riff)

e---9--------9---------9------10-----------|
B------7--7------7--7-----7-------7--------|
G----------------------------------------o-|
D----------------------------------------o-|
A------------------------------------------|
E------------------------------------------|
[ Tab from: http://www.guitartabs.cc/tabs/j/john_carpenter/halloween_theme_tab.html ]
e---8--------8---------8------9--------------|
B------6--6------6--6-----6-------6----------|
G----------------------------------------o---|
D----------------------------------------o---|
A--------------------------------------------|
E--------------------------------------------|

Guitar 2 (Play each chord after each main riff measure)

e--------------------------------------|
B--------------------------------------|
G--------------------------------------|
D---4------------7-----------3---------|
A---4------------7-----------3---------|
E---2------------5-----------1---------|

Bass


G---------------------------------------|
D---------------------------------------|
A----------------0----------------------|
E---2------------------------1----------|


You could have lots of fun with this.  Be creative, have fun!
Comments