John Cafferty And The Beaver Brown Band - Runnin Through The Fire Chords & Tabs

 

Runnin Through The Fire Chords & Tabs

John Cafferty And The Beaver Brown Band Chords & Tabs

Version: 1 Type: Bass Tab 0 ratings
1 star 2 stars 3 stars 4 stars 5 stars
comments

Runnin Through The Fire Bass Tab

   
-----------------------------------------------------------------------------
        RUNNIN’ THROUGH THE FIRE – John Cafferty and the Beaver Brown Band
-----------------------------------------------------------------------------
Tabbed by: Navajo Bassman
E-mail: yorkguy717@yahoo.com

Tuning:EADG
                                                        Verse One
G|--------|--------|--------|--------|--------|--------|--------|--------|
D|--------|--------|--------|--------|--------|--------|0------x|0------x|
A|--------|--------|--------|--------|--------|--------|--------|--------|
E|--------|--------|--------|--------|--------|--------|--------|--------|
                                                        |______| |_______|


G|--------|--------|0------x|0------x|--------|--------|--------|0------x|
D|0------x|0------x|--------|--------|0------x|0------x|--------|--------|
A|--------|--------|--------|--------|--------|--------|0------x|--------|
E|--------|--------|--------|--------|--------|--------|--------|--------|
  |______| |______| |______| |______| |______| |______| |______| |______|


                                      Chorus
G|--------|--------|--------|--------|--------|--------|--------|--------|
D|0------x|0------x|0------x|0------x|--00---x|--00---x|--00---x|--00---x|
A|--------|--------|--------|--------|03------|03------|03------|03------|
E|--------|--------|--------|--------|--------|--------|--------|--------|
  |______| |______| |______| |______|     |__|     |__|     |__|     |__|


                                               Verse Two
G|----12\0|--------|--------|--------|--------|--------|--------|--------|
D|--------|0------x|0------x|0------x|0------x|0------x|0------x|0------x|
A|--------|--------|--------|--------|--------|--------|--------|--------|
E|--------|--------|--------|--------|--------|--------|--------|--------|
           |______| |______| |______| |______| |______| |______| |______|
[ Tab from: http://www.guitartabs.cc/tabs/j/john_cafferty_and_the_beaver_brown_band/runnin_through_the_fire_btab.html ]
G|--------|0------x|0------x|--------|--------|--------|0------x|--------|
D|0------x|--------|--------|0------x|0------x|--------|--------|0------x|
A|--------|--------|--------|--------|--------|0------x|--------|--------|
E|--------|--------|--------|--------|--------|--------|--------|--------|
  |______| |______| |______| |______| |______| |______| |______| |______|


                             Chorus
G|--------|--------|--------|--------|--------|--------|--------|2-----x-|
D|0------x|0------x|0------x|--00---x|--00---x|--00---x|--00---x|--------|
A|--------|--------|--------|03------|03------|03------|03------|--------|
E|--------|--------|--------|--------|--------|--------|--------|--------|
  |______| |______| |______|     |__|     |__|     |__|     |__| |_____|

  Bridge
G|0------x|0------x|--------|--------|0------x|0------x|2------x|2-------|
D|--------|--------|0------x|0------x|--------|--------|--------|--------|
A|--------|--------|--------|--------|--------|--------|--------|--------|
E|--------|--------|--------|--------|--------|--------|--------|--------|
 |_______| |______| |______| |______| |______| |______| |______| |_______|


                    Chorus x 2
G|--------|--------|--------|--------|--------|--------|--------|--------|
D|0------x|0------x|--00---x|--00---x|--00---x|--00---x|--00---x|--00---x|
A|--------|--------|03------|03------|03------|03------|03------|03------|
E|--------|--------|--------|--------|--------|--------|--------|--------|
  |______| |______|     |__|     |__|     |__|     |__|     |__|     |__|


                    Outtro
G|--------|--------|--------|--------|--------|--------|
D|--00---x|--00---x|--00---x|--00---x|--00---x|--00---x|
A|03------|03------|03------|03------|03------|03------|
E|--------|--------|--------|--------|--------|--------|
      |__|     |__|     |__|     |__|     |__|     |__|


| /  slide up
| \  slide down
| h  hammer-on
| p  pull-off
| ~  vibrato
| +  harmonic
| x  Mute note
=======================================================
Comments