John Cafferty And The Beaver Brown Band - Nyc Song (eddie And The Cruisers - The Unreleased Tapes) Chords & Tabs

 

Nyc Song (eddie And The Cruisers - The Unreleased Tapes) Chords & Tabs

John Cafferty And The Beaver Brown Band Chords & Tabs

Version: 1 Type: Tab 0 ratings
1 star 2 stars 3 stars 4 stars 5 stars
comments

Nyc Song (eddie And The Cruisers - The Unreleased Tapes) Tab

John Cafferty and the Beaver Brown Band - NYC Song (Eddie and the Cruisers - The Unreleased Tapes)

(Capo 5th Fret)


  Intro 

e:---------0-----------0------|
B:-------------- 3------------|
G:o-----0-----------0-----0--o|
D:o-----------2--------------o|
A:---3------------------------|
E:----------------------------|
  Repeat x4


  Verses 1 & 2

e:---------0-----------0------|---------0-----------0------|---------0-----------0------|
B:---------------3------------|---------------3------------|---------------3------------|
G:o-----0-----------0-----0--o|o-----0-----------0-----0--o|o-----0-----------0-----0--o|
D:o-----------2--------------o|o-----------2--------------o|o-----------2--------------o|
A:---3------------------------|----------------------------|---3------------------------|
E:----------------------------|---1------------------------|----------------------------|
  Repeat x4




e:---------0-----------0------|----------------------------|---------0-----------0------|
B:---------------3------------|---------0-----1-----3------|---1-----------3------------|
G:------0-----------0-----0---|------------0-----0-----0---|o-----0-----------0-----0--o|
D:------------2---------------|----------------------------|o-----------2--------------o|
A:----------------------------|------2---------------------|---3------------------------|
E:---1------------------------|---3------------------------|----------------------------|



  Bridge

e:---------0-----------0------|---------0-----------0------|---------0-----------0------|
B:---------------3------------|---------------3------------|---------------3------------|
G:o-----0-----------0-----0--o|o-----0-----------0-----0--o|o-----0-----------0-----0--o|
D:o-----------2--------------o|o-----------2--------------o|o-----------2--------------o|
A:----------------------------|---3------------------------|----------------------------|
E:---1------------------------|----------------------------|---1------------------------|



                               Bridge Outro
[ Tab from: http://www.guitartabs.cc/tabs/j/john_cafferty_and_the_beaver_brown_band/nyc_song_eddie_and_the_cruisers_the_unreleased_tapes_tab.html ]
e:---------0-----------0------|---------0-----------0------|---------0-----------0------|
B:---------------3------------|---------------3------------|---------------3------------|
G:o-----0-----------0-----0--o|o-----0-----------0-----0--o|o-----0-----------0-----0--o|
D:o-----------2--------------o|o-----------2--------------o|o-----------2--------------o|
A:---3------------------------|----------------------------|---3------------------------|
E:----------------------------|---1------------------------|----------------------------|





e:----------------------------|---------0-----------0------|---------0-----------0------|
B:---------0-----1-----3------|---------------3------------|---1-----------3------------|
G:------------0-----0-----0---|------0-----------0-----0--o|o-----0-----------0-----0--o|
D:----------------------------|------------2--------------o|o-----------2--------------o|
A:------2---------------------|----------------------------|---3------------------------|
E:---3------------------------|---1------------------------|----------------------------|



  Harmonica Solo

e:---------0-----------0------|---------0-----------0------|---------0-----------0------|
B:---------------3------------|---------------3------------|---------------3------------|
G:o-----0-----------0-----0--o|o-----0-----------0-----0--o|o-----0-----------0-----0--o|
D:o-----------2--------------o|o-----------2--------------o|o-----------2--------------o|
A:---3------------------------|----------------------------|---3------------------------|
E:----------------------------|---1------------------------|----------------------------|
  Repeat x4


  Solo Outro

e:---------0-----------0------|---------0-----------0------|----------------------------|
B:---------------3------------|---------------3------------|---------0-----1-----3------|
G:o-----0-----------0-----0--o|o-----0-----------0-----0--o|------------0-----0-----0---|
D:o-----------2--------------o|o-----------2--------------o|----------------------------|
A:----------------------------|---3------------------------|------2---------------------|
E:---1------------------------|----------------------------|---3------------------------|





e:---------0-----------0------|---------0-----------0------|--0------------------------||
B:---------------3------------|---1-----------3------------|--1------------------------||
G:------0-----------0-----0--o|o-----0-----------0-----0--o|--0------------------------||
D:------------2--------------o|o-----------2--------------o|--2------------------------||
A:----------------------------|---3------------------------|--3------------------------||
E:---1------------------------|----------------------------|---------------------------||
Comments