John Butler Trio - Zebra Chords & Tabs

 

Zebra Chords & Tabs

John Butler Trio Chords & Tabs

Version: 5 Type: Tab

Zebra Tab

   
-----------------------------------------------------------------------------
			   ZEBRA  -  JOHN BUTLER TRIO
-----------------------------------------------------------------------------
Tabbed by:guitar dude 73
Email:garybarr@optusnet.com

Tuning:B F# B F# B D#

Dale Majid: I'm sorry to say this but your tab sucked.In fact all the tabs I
have seen for John Butler Trio are way off the mark. This is the PROPER! way
to do it:I have the tab book. I tell you the only person here submiting tabs
that isnt tone deaf is that guy who did stairway to heaven.


here's the intro:

            .    .                              .   .
|--------------------------------------------------------------------------|
|--------------------------------------------------------------------------|
|-----3-----5----5--5p3h5--------------------------------------------------|
|------------------------------5--7--5--7\5-3---3---3---5p3-5--3h5-5/6\5---|
|--------------------------------------------------------------------------|
|--------------------------------------------------------------------------|
and it repeats the same exept for the end bit:    this is the solo:(w/dist+
                                                      wha-wha)(w/ slide)
|-----------||-------------------------------||----------------------------|
|-----------||-------------------------------||----------------------------|
|-----------||-------------------------------||---3/5----------------------|
|---3-------||-----------5/6\5--3------------||----------------------------|
|------3----||-----3h5-------------3---3-----||----------------------------|
|-----------||-------------------------------||----------------------------|

|--------------------------------------------------------------------------|
|-----0----2/3-0-------0--3/5-5\3--0----------0----------------------------|
|----------------0--3-----------------0---3--------------------------------|
|---------------------------------------------------5/6--5-0-3-0-3-0-3-3/5-|
|--------------------------------------------------------------------------|
|--------------------------------------------------------------------------|

|--------------------------------------------------------------------------|
|------------------------------------------------------0-3/5p0-0---3-0-5-0-|
|------------3p0------------0------------3/5---0----0h3--------------0---0-|
|---5\--------------------------0---3----3/5---0---------------------------|
|--------5---------3/5-----------------------------------------------------|
|--------------------------------------------------------------------------|
                                   ~~~
|--------0----------0---------------------0--------------------------------|
|--7p0------10p0--------10h12p0---10----------0-------0-----------5/6------|
|-------------------------------------------------0------------------------|
|--------------------------------------------------------------------------|
|--------------------------------------------------------------------------|
|--------------------------------------------------------------------------|
|--------------------------------------------------------------------------|
[ Tab from: http://www.guitartabs.cc/tabs/j/john_butler_trio/zebra_tab_ver_5.html ]
|--------------------------------------------------------------------------|
|---5---5\3p0---3-5/6-----5---5\3p0-----5--5\3p0---3--------------3--------|
|-----------------------------------------------------3--------------------|
|-----------------------------------------------------3--------------------|
|--------------------------------------------------------------------------|
|--------------------------------------------------------------------------|
 no slide:
|------------------12---------------------------------------------11-------|
|--5/12---0-0------12b14---pb14rb12p10--7--10--12--10h12--10h12------------|
|--5/12---0-0--------------------------------------------------------------|
|--5/12---0-0--------------------------------------------------------------|
|--------------------------------------------------------------------------|
|--------------------------------------------------------------------------|
                                 repeat this 7 times fast:         
|-----------------------------------x----6--6--6--||-------6---||--6h8p6---|
|----10h12p10---10h12p10h12-12------x-------------||--6h7------||----------|
|-----------------------------------x-------------||-----------||----------|
|-------------------------------------------------||-----------||----------|
|-------------------------------------------------||-----------||----------|
|-------------------------------------------------||-----------||----------|
                    with slide again:
|--8p6-----6---------------------------------------------------------------|
|-------7-----7------5/6\5p0-------------------------3--5------------10-12-|
|---------------------------------8p0-3--3---3--3/5-----------10/12-----12-|
|--------------------------------------------------------------------------|
|--------------------------------------------------------------------------|
|--------------------------------------------------------------------------|
                                               repeat 11 times:
|--------------------------------------------------------------||---------||
|---x---14/15---0h12p0-10p0---5/6---5---3---0-----0h3p0--0-2/3-||--2/3----||
|---x---14/15---0h12p0-10p0---5/6---5---3---0------------------||--2/3----||
|--------------------------------------------------------------||---------||
|--------------------------------------------------------------||---------||
|--------------------------------------------------------------||---------||
        slow gliss
|--------------------------------------------------------------------------|
|----3---3--/----5---------------------------------------------------------|
|----3---3--/----5---------------------------------------------------------|
|--------------------------------------------------------------------------|
|--------------------------------------------------------------------------|
|--------------------------------------------------------------------------|

So have fun and email me on your thoughts at garybarr@optusnet.com

| rb release bend
| pb prebend
| .  staccato    
| /  slide up   
| \  slide down  
| h  hammer-on   
| p  pull-off    
| ~  vibrato     
| +  harmonic
| x  Mute note
=============================================================================