John Butler Trio - Zebra Chords & Tabs

 

Zebra Chords & Tabs

John Butler Trio Chords & Tabs

Version: 4 Type: Tab 0 ratings
1 star 2 stars 3 stars 4 stars 5 stars
comments

Zebra Tab

   
ZEBRA

Music & Lyrics by John Butler

Tabbed by - Dishmon

Tuning: B F# B F# B E


Intro/Chorus

E |--------------------------------------------|
B |--------------------------------------------|
F#|-3h5-5-5-3-5--------------------------------|
B |-------------5-7-5-7--3-3-5-3-5-----7-5-3---|
F#|--------------------------------5-5-------5-|
B |--------------------------------------------|x2

(chorus only)

E |--------------------------------------------|
B |--------------------------------------------|
F#|-5--5-8-7-5---------------------------------|
B |--------------5-7-5-7--3-3-5-3-5-----7-5-3--|
F#|---------------------------------5-5-------5|
B |--------------------------------------------|x1
[ Tab from: http://www.guitartabs.cc/tabs/j/john_butler_trio/zebra_tab_ver_4.html ]
E |--------------------------------------------|
B |--------------------------------------------|
F#|-3h5-5-5-3-5--------------------------------|
B |-------------5-7-5-7--3-3-5-3-5-----7-5-3---|
F#|--------------------------------5-5-------5-|
B |--------------------------------------------|x1

Verse

E |---------------------------|
B |-------7--7----------------|
F#|-5--5---------8--8---5--5--|
B |-------7--7----------------|
F#|-5--5---------8--8---5--5--|
B |---------------------------|x4

Chorus

Verse

Chorus

Solo
(?)

Solo

E |------------------------------------------|
B |------------------------------------------|
F#|------------------------------------------|
B |-----------5-7-5--------------7-5---------|
F#|-------5-7-------7-5------5-7-----7-5-7---|
B |-0-0-----------------0-0------------------|

E |------------------------------------------|
B |------------------------------------------|
F#|------------------------------------------|
B |-----------5-7-9-10-----------7-5---------|
F#|-------5-7----------------5-7-----7-5-7---|
B |-0-0-----------------0-0------------------|

No guitar/spoon solo

Verse

Chorus
Comments