John Butler Trio - Zebra Chords & Tabs

 

Zebra Chords & Tabs

John Butler Trio Chords & Tabs

Version: 2 Type: Bass Tab 0 ratings
1 star 2 stars 3 stars 4 stars 5 stars
comments

Zebra Bass Tab

-------------------------------------------------------------------------------
			     Zebra -  jhon butler trio
-------------------------------------------------------------------------------

Tabbed By :Lain
e-mail: lainbass@hotmail.com
[ Tab from: http://www.guitartabs.cc/tabs/j/john_butler_trio/zebra_btab_ver_2.html ]
Tuning:eadg
Verse      just keep repeating until the chours
G|---------------------------------------------------------------------------|
D|-----4-4-0-0---------------------------------------------------------------|
A|-2-2---------2-2-0---------------------------------------------------------|
E|---------------------------------------------------------------------------|
Chours
G|-4-4-4-2-4---------------------------------------------------------------------|
D|-----------2-3-2-3-0-0-2-0-2-0-2-3-2-0-----------------------------------------|
A|---------------------------------------0-2-0-----------------------------------|
E|-------------------------------------------------------------------------------|
bridge
G|---------------------------------------------------------------------------|
D|---2-----0-2-0-------------------------------------------------------------|
A|-----0-2-------2-0---------------------------------------------------------|
E|-0-------------------------------------------------------------------------|
Comments