John Butler Trio - What You Want Chords & Tabs

 

What You Want Chords & Tabs

John Butler Trio Chords & Tabs

Version: 2 Type: Tab 0 ratings
1 star 2 stars 3 stars 4 stars 5 stars
comments

What You Want Tab

   
Tabed By Freddy
standard tuning EADGBE
This is my first ever tab i hope its good

What you want

Chords
    C   A   Em1 and Em2     *
E---0---0---3--------0------x------|
B---3---0---3--------0------x------|
G---0---2---0--------0------x------|
D---2---2---2--------2------4------|
A---3---0---2--------2------5------|
E---x---x---0--------0------x------|
Do these chords a few times
 C, A, Em2, Em1, Em2, Em1, Em2, Em1
 C, A, Em1
                  C    A     Em1
What you want to say
                          C    A   Em1
i'll wait till you get home
                C       A
im sick of communucating
Em              C     A     Em1
over the telephone
                C     A     Em1
tell me how you feel
               C     A     Em1
for i am lonly to
               C     A    Em1
need you to no im just as cold and numb
      C    A     Em1
as you
                                        x8
E---------------------------------------|
B---------------------------------------|
G---------------------------------------|
D---------------------------------------|
A--0h7----7h9---9h10p9-----9------------|
E---------------------10----------------|


C  A  Em2 x2
E--3bp2--2--------------|
G----------3-1-0--------|
B----------------2-0----|
D-----------------------|
A-----------------------|
E-----------------------|

C  A  Em2
[ Tab from: http://www.guitartabs.cc/tabs/j/john_butler_trio/what_you_want_tab_ver_2.html ]
E--12-10-------------------|
G--------12-10-12-10-8-7---|
B--------------------------|
D--------------------------|
A--------------------------|
E--------------------------|

C  A  Em2

But i could fly away
or i could be no one
and you could be the
sunshine falling over the mountains

Or you could come to stay
you could come right home
dont see why i have to
live this life all alone
                              x16
E-----------------------------|
G-----------------------------|
B-----------------------------|
D--0h7-7h9-9h10p9--999h10p9---|
A-----------------------------|
E-----------------------------|
(this is sung with the tab above)

I know there is a way to make up for old mistakes
and i know whats happening is for a reason i know

Em2, A, C, *
E--7-7-7-8----7-7-7-8----7-7-7-8--101010101010--------|
G-----------------------------------------------------|
B-----------------------------------------------------|
D-----------------------------------------------------|
A-----------------------------------------------------|
E-----------------------------------------------------|

Em2, A, C, *
E-7s8-8s10-10-10s12-12-12s14-14-14-151515151515------|
G----------------------------------------------------|
B----------------------------------------------------|
d----------------------------------------------------|
A----------------------------------------------------|
E----------------------------------------------------|

Em2, A, C, *

E--3bp2--2----------------|x2
G----------3-1-0----------|
B----------------2-----0--|
D-------------------------|
A-------------------------|
E-------------------------|

Em2, A, C, *

End on C

Hope you like it
Comments