John Butler Trio - Betterman Chords & Tabs

 

Betterman Chords & Tabs

John Butler Trio Chords & Tabs

Version: 2 Type: Tab 0 ratings
1 star 2 stars 3 stars 4 stars 5 stars
comments

Betterman Tab

e :-----------------------------------------------------------
B :-----------------------------------------------------------
G :-----------------------------------------------------------
D :-------------------3--5-5p0------------------8--10-10p0----
A :---5-5-5-----3/5-------------5---8-8-8--8/10------------10-
E :---3-3-3-------------------------6-6-6---------------------
[ Tab from: http://www.guitartabs.cc/tabs/j/john_butler_trio/betterman_tab_ver_2.html ]
e :-----------------------------------------------------------
B :-----------------------------------------------------------
G :--------3/5--3p0-----------0-------------------------------
D :-----------------5p0--3h5-------------------3--------------
A :-3-3-3------------------------5-5-5---3h4h5----5--3h5p3----
E :-1-1-1------------------------3-3-3------------------------

Comments