John Butler Trio - Believe Chords & Tabs

 

Believe Chords & Tabs

John Butler Trio Chords & Tabs

Version: 1 Type: Tab

Believe Tab

Tuning - BAC#F#BF#

Intro/Verse
[ Tab from: http://www.guitartabs.cc/tabs/j/john_butler_trio/believe_tab.html ]
F#|---------------------------0-------|--------------------------------|
B |-------2-------2/3-----------------|-------2-------2/3--------------|
F#|---0-----0-0-------0---0-------(0)-|---0-----0-0-------0---0--------|
C#|---------------------1---1--(1)----|---------------------1---1h3h1--|
A |-2---2-------2---------------------|-2---2-------2------------------|
B |-----------------------------------|--------------------------------|
1 2 3 4 1 2 3 4


Chorus

F#|-0---0---0---0--0----0--0---0--0-0-|-0/0--0--0---0-0---0--0--0--0-0-|
B |-10--10--10--10-10---5--5---5--5-5-|-5/7--7--7---7-7---7--7--7--7-7-|
F#|-0---0---0---0--0----0--0---0--0-0-|-0/0--0--0---0-0---0--0--0--0-0-|
C#|-8---8---8---8--8----3--3---3--3-3-|-3/5--5--5---5-5---5--5--5--5-5-|
A |-----------------------------------|--------------------------------|
B |-----------------------------------|--------------------------------|