John 5 - Fiesty Cadavers Chords & Tabs

 

Fiesty Cadavers Chords & Tabs

John 5 Chords & Tabs

Version: 1 Type: Tab 0 ratings
1 star 2 stars 3 stars 4 stars 5 stars
comments

Fiesty Cadavers Tab

   
John 5 - Fiesty Cadavers
Tuning low to high: B,A,D,G,B,e

This is the acoustic part to Fiesty Cadavers

[ Tab from: http://www.guitartabs.cc/tabs/j/john_5/fiesty_cadavers_tab.html ]
e--------------2----/8-|-7--------7-------------|
B--0-------0-----0-----|----7--------8-----7----|
G-----4----------------|------7---------7-----7-|
D-------4--------------|-0----------------------|
A----------------------|------------------------|
B--0-------------------|------------------------|

e-----------------8---|-7------7------0-|
B--0------0--7------0-|---7------7------|
G----0---------0------|-----0------0----|
D------0--------------|-----------------|
A---------------------|-7---------------|
B--8------------------|-----------------|
Comments