Johannes Brahms - Lullaby Chords & Tabs

 

Lullaby Chords & Tabs

Johannes Brahms Chords & Tabs

Version: 1 Type: Tab 0 ratings
1 star 2 stars 3 stars 4 stars 5 stars
comments

Lullaby Tab

   
          Brahms' Lullaby        Heres a version I learned and it sounds really good
				 when played fluently.

               (Capo 2nd fret)


        G                                                       D9/F#

      --------|---------------|----------------|--3---2----0--|--0-----------|--------------|
      --0--0--|--3-----0--0---|--3-------0--3--|--0-----------|--1---3------0|--1---------0-|
      --0--0--|--4-----0--0---|--4-------0--4--|--0-----------|--2-------2---|--2--2--2-----|
      --------|---------------|----------------|--------------|--------------|--------------|
      --------|---------------|----------------|--------------|--------------|--------------|
      --------|--3------------|--3-------------|--3-----------|--2-----------|--2-----------|

                      D7               G              C            G/B   G     D9/F#            G

      --------------|--2--0------2--|--3-----------|--3-----0----|------------|------------------|
      --1-------1---|--1-----3---1--|--0-----------|--1--------1-|--3----0----|--1--3-1-0--------|
      --2----2------|--2---------2--|--0-----0--0--|-------------|--0-------0-|--2----------2---0|
      --------------|--0---------0--|--------------|--2----------|--0---------|------------------|
      --------------|---------------|--------------|--3----------|--2---------|------------------|
      --2-----------|---------------|--3-----------|-------------|-------3----|--2----------2---3|

                                                  D9/F#            D7/F#                          D7
[ Tab from: http://www.guitartabs.cc/tabs/j/johannes_brahms/lullaby_tab.html ]
      --------|------------------|--3----2----0--|--0-------------|--------------|--------------|--2--0------2-|
      --0--0--|--3---------0--3--|--0------------|--1-----3-----0-|--1---------0-|--1---------1-|--1----3----1-|
      --0--0--|--4-----4---0--4--|--0------------|--2--------2----|--2----2--2---|--2----2--2---|--2---------2-|
      --------|-----0------------|-----0----0----|-----0----------|-----0--------|-----0--------|--0------0----|
      --------|------------------|---------------|----------------|--------------|--------------|--------------|
      --------|--3---------------|--3------------|--2-------------|--2-----------|--2-----------|--------------|


         G              C          Am       Bm7   G/F#    Am7 Bm7  Cadd9 Gadd9   G/F     C/E   Cadd9

      |--3-----------|--3-----------0-----|-------------|-----------0--|---------------|--3------0----|
      |--0-----------|--1--------1-----1--|--3-----0----|--1---3----3--|--0----3-------|--1------3--1-|
      |--0-----0--0--|--------0-----------|--2--0----0--|--0---2----0--|--2--0----0--0-|--0------0----|
      |--------------|--2--2--------------|--0-----4----|--2---0-------|--0----4--3----|--2--0--------|
      |--------------|--3-----------0-----|--2----------|--0---2----3--|---------------|---------3----|
      |--3-----------|--------------------|-------------|--------------|--3------------|--------------|

       Bm7   G/F#     Am7     Bm7    D/F#  G

      --------------|-------------------|--------|
      --3-----0-----|--1--3>1--0--------|--------|
      --2--0-----0--|--0-------2------2-|--0-----|
      --0-----4-----|--2-------0--------|--------|
      --2-----------|--0-------2--------|--------|
      --------------|--------------0--2-|--3-----|
Comments