Johann Sebastian Bach - Fugue In D Minor Chords & Tabs

 

Fugue In D Minor Chords & Tabs

Johann Sebastian Bach Chords & Tabs

Version: 1 Type: Tab 0 ratings
1 star 2 stars 3 stars 4 stars 5 stars
comments

Fugue In D Minor Tab

   
Title: fugue in dm
Composer: Bach
Transcibed by Ly
email: indestructabledude@gmail.com
comments: i tabbed it in two versions since alot of people find it abit difficult


standard tuning


part a
|-5-5-5-5-5-5-5-5-5-5-5-5-5-5-5-5-|
|--8-6-5-------5-6-------------5--|
|--------7-6-7---------6-7-6-7----|
|------------------7-9------------|
|---------------------------------|
|---------------------------------|


part b
easy version
|---10--10--10--10--10--10--10--10--10--10--10--10--10--10--10--10-|
|-----13--11--10--------------10--11--------------------------10---|
|-10--------------12--11--12--------------9---11--12--11--12-------|
|-------------------------------------12---------------------------|
|------------------------------------------------------------------|
|------------------------------------------------------------------|

harder version
|---10--10--10--10--10--10--10--10--10--10--10--10--10--10--10--10-|
|-----13--11--10--------------10--11--------------------------10---|
|-10--11--12------12--11--12--------------9---11--12--11--12-------|
|-------------10--------------10--12--12---------------------------|
|-----------------13--12--13----------9---10--12--13--12--13--9----|
|------------------------------------------------------------------|


part c
easy version 
|-----10------10--|11----11----|----8-------8---|10---10---|6---6---|9---9-----|
|-11------11------|---8-----8--|10------10------|---6----6-|--8---8-|--5---5---|
|---12--12--12--12|--8--8--8--8|--10--10--10--10|--7-7--7-7|-9-9-9-9|-6-6-6--6-|
|-----------------|------------|----------------|----------|--------|----------|
|-----------------|------------|----------------|----------|--------|----------|
|-----------------|------------|----------------|----------|--------|----------|

|-5---5---|--------|--------|---------|
|---6---6-|8---8---|6---6---|5---5----|
|--7-7-7-7|--6---6-|--7---7-|-0-0-0-0-|
|---------|-8-8-8-8|-7-7-7-7|--8---8--|
|---------|--------|--------|---------|
|---------|--------|--------|---------|
[ Tab from: http://www.guitartabs.cc/tabs/j/johann_sebastian_bach/fugue_in_d_minor_tab.html ]
harder version
|-----10------10--|11----11----|----8-------8---|10---10---|6---6---|9---9-----|
|-11------11------|---8-----8--|10------10------|---6----6-|--8---8-|--5---5---|
|---12--12--12--12|--8--8--8--8|--10--10--10--10|--7-7--7-7|-9-9-9-9|-6-6-6--6-|
|---------12--12--|10-10-10-10-|10--10--10--10--|8--8-8--8-|8-8-8-8-|7-7-7-7---|
|-10--10----------|------------|----------------|----------|--------|----------|
|-----------------|------------|----------------|----------|--------|----------|

|-5---5---|--------|--------|---------|
|---6---6-|8---8---|6---6---|5---5----|
|--7-7-7-7|--6---6-|--7---7-|-0-0-0-0-|
|---------|-8-8-8-8|-7-7-7-7|--8---8--|
|-8-8-8-8-|7-7-7-7-|5-5-5-5-|7-7-7-7--|
|---------|--------|--------|---------|


part d
easy version 
|--5-5-5-5-5-5-5-5-5-5-5-5-5-5-5-5-|
|---8-6-5-------5-6-------------5--|
|---------7-6-7---------6-7-6-7----|
|-------------------7-9------------|
|-8--------------------------------|
|----------------------------------|

harder version
|--5-5-5-5-5-5-5-5-5-5-5-5-5-5-5-5-|
|---8-6-5-------5-6-------------5--|
|-------0-7-6-7---------6-7-6-7----|
|-------------------7-9------------|
|-8-7-5---8-7-8-4-5---5-7-8-7-8-4--|
|-------------------8--------------|


part e
easy version
|--5-5-5-5-5-5-3-3-3-3-3-3-3-3-1-1-1-1-1-1-1-1-0-0-0-0-0-0-0-0-----0-0---------------0-0-----|
|-6-5-------------5-3---------1---3-1-------------1------------3-3-----3-3-2-2-3-3-3-----3-3-|
|-----7-5---5-7-3-----5-3-2-3---2-----3-2-0-2-3-0---3-2-0---0-2-----------3-3-2-2------------|
|---------8-----------------------------------------------3-----3-2-2-3-3-3-------3-2-2-3-3--|
|---------------------------------------------------------------5-4-4-5-5---------5-4-4-5-5--|
|--------------------------------------------------------------------------------------------|

harder version
|--5-5-5-5-5-5-3-3-3-3-3-3-3-3-1-1-1-1-1-1-1-1-0-0-0-0-0-0-0-0-----0-0---------------0-0-----|
|-6-5-------------5-3---------1---3-1-------------1------------3-3-----3-3-2-2-3-3-3-----3-3-|
|-----7-5-0-5-7-3-----5-3-2-3---2-----3-2-0-2-3-0---3-2-0---0-2-----------3-3-2-2------------|
|---------8-----------2---3-----------0---2---------------3-----3-2-2-3-3-3-------3-2-2-3-3--|
|-5---8-----------3---------------1---------------0---4---0-----5-4-4-5-5---------5-4-4-5-5--|
|--------------------------------------------------------------------------------------------|
Comments