Joel Plaskett - Love This Town Chords & Tabs

 

Love This Town Chords & Tabs

Joel Plaskett Chords & Tabs

Version: 1 Type: Tab 0 ratings
1 star 2 stars 3 stars 4 stars 5 stars
comments

Love This Town Tab

   
My first Guitar Tab*
Capo 2
Intro/Verse

      G              Em                    G             Em
e--------------------------------------------------------------------------|
B-----0------------------------------------0-------------------------------|
G---------0------------------------------------0---- -------0-2-5-5-2-0-2--|
D--------------------2-------0-0-2-5-2--------------------2----------------|
A--------------------2------------------------------------2----------------|
E-----3-------3----------------------------3-------3-----------------------|

Listen up kid......

e------------------------------------------------------------------------|
B-----0------------------------------------------------------------------|
G---------0---------------------5-4-2-0-2-4-0----------------------------|
D-------------0-0-0-2-5-5h7-5--------------------------------------------|
A------------------------------------------------------------------------|
E-----3------------------------------------------------------------------|
              Theres a reason that i love this town

Course
[ Tab from: http://www.guitartabs.cc/tabs/j/joel_plaskett/love_this_town_tab.html ]
e------------------------------------------------------------------------|
B----------5-5-5----5-5-5------------------------------------------------|
G----------5-5-5----5-5-5-----5-5-5--5-5-5-------------------------------|
D----------5-5-5----5-5-5-----5-5-5--5-5-5-------------------------------|
A----------3-3-3----3-3-3-----5-5-5--5-5-5-------------------------------|
E----------0-0-0--------------3-3-3--3-3-3-------------------------------| x2
  I saw your band ....

e------------------------------------------------------------------------|
B------------------------------------------------------------------------|
G----------5-5-5-5-5-----------------------------------------------------|
D----------5-5-5-5-5---------5-5-5---------------------------------------|
A----------7-7-7-7-7---------5-5-5---------------------------------------|
E----------------------------7-7-7---------------------------------------|


 In between the verse and course, he plays:

e------------------------------------------------------------------------|
B----0-------1-------1-------0-------1h3---------------------------------|
G-------0------0-------0-------0---------0-------------------------------|
D------------------------------------------------------------------------|
A------------------------------------------------------------------------|
E----3----3------3-----------3-------------3-----------------------------|


 Tabbed By Robbie McNeil
Comments