Joel Billy - Just The Way You Are Chords & Tabs

 

Just The Way You Are Chords & Tabs

Joel Billy Chords & Tabs

Version: 1 Type: Tab 0 ratings
1 star 2 stars 3 stars 4 stars 5 stars
comments

Just The Way You Are Tab

#----------------------------------PLEASE NOTE---------------------------------#
#This file is the author's own work and represents their interpretation of the #
#song. You may only use this file for private study, scholarship, or research. #
#------------------------------------------------------------------------------#
From: KeanJ@agresearch.cri.nz
Date: Thu, 22 Jun 1995 09:02 +1200 (NZST)
Subject: TAB: Just the Way You Are  - Billy Joel

Here's a song I arranged years ago, but only just around to typing up and 
posting.  The arrangement is not particularly inspiring but is fairly 
faithful to the keyboard part on the recording.  It should work OK either as 
a guitar solo, or with singing.  Most of it is pretty easy.  Enjoy...


Just the Way You Are  - Billy Joel
~~~~~~~~~~~~~~~~~~~~
>From "The Stranger".
Arranged for solo guitar by John Kean (keanj@agresearch.cri.nz).


   , . , . , . , .   , . , . , . , .     , . , . , . , .   , . , . , . , .
||-----------------|-------0---------||------------------|-------0---------|
||-------1---------|-------1---3-----||--------1---------|-------1---3-----|
||-----0-2---------|-----0-----4-----||*-----0-2---------|-----0-----4-----|
||---0---1---------|---0-----------0-||*---0---1---------|---0-----------0-|
||-----------------|-----------------||------------------|-----------------|
||-3---------------|-3---------------||--3---------------|-3---------------|


  , . , . , . , .   , . , . , . , .   , . , . , . , .   , . , . , . , .
|---------3/7---3-|---0-------------|---------0-3---0-|-----------------|
|-0-----3---------|-2-----0-0-------|-------0---------|---0-------------|
|-0---------------|-0-----------0---|---------------0-|-----------------|
|-----------------|-2---------------|-2---------------|---------2---3---|
|-----------------|-----------------|-3---------------|-------2-----5---|
|-3---------------|-0---------------|-----------------|-0---------------|


  , . , . , . , .   , . , . , . , .   , . , . , . , .   , . , . , . , .
|-----------------|-----------------|-----------------|-----------------|
|-------0-1-3---0-|---------------0-|-----------------|-----3-0-------0-|
|-0---------------|---0---0-------0-|---------0-------|-5-----0---2---0-|
|-2---------------|-1---------1---0-|-------0---0-----|-3-----3---------|
|-3---------------|-3-------0-------|-----------------|-5---------------|
|-----------------|-----------------|-3-----------3---|---------3-------|


  , . , . , . , .   , . , . , . , .   , . , . , . , .   , . , . , . , .
|-----------------|-----------------|---------------2-|---3-------------|
|---------0---0---|-----------------|---------0---3---|-0-----------0---|
|-------0-------2-|---0-------------|-------0---------|-0-----------0---|
|-2---------------|-1-----------1---|-0---------------|---------2-------|
|-3---------------|-3-----3-3-------|-2---------------|-------2---------|
|-----------------|-----------------|-----------------|-0---------------|


  , . , . , . , .   , . , . , . , .   , . , . , . , .   , . , . , . , .
|---------0-2---3-|---5-------2-0---|-----------------|-----------------|
|-------0---------|-2-------0-----3-|-----------------|-----------------|
|---------0-------|-0-------0-------|-------0---------|-------0---0-----|
|---------0-------|-----------------|-0-----2---------|-0-----2---2-----|
|-0---------------|-0---------------|-------3-------0-|-------3---3---0-|
|-----------------|-----------------|-----------------|-----------------|


  , . , . , . , .   , . , . , . , .   , . , . , . , .   , . , . , . , .
|---------3/7---3-|---0-------------|---------0-3---0-|-----------------|
|-0-----3---------|-2-----0-0-------|-------0---------|---0-------------|
|-0---------------|-0---------2-0---|---------------0-|-----------------|
|-----------------|-2---------------|-2---------------|---------2---3---|
|-----------------|-----------------|-3---------------|-------2-----5---|
|-3---------------|-0---------------|-----------------|-0---------------|


  , . , . , . , .   , . , . , . , .   , . , . , . , .   , . , . , . , .
|-----------------|-----------------|-----------------|-----------------|
|-------0-1-3---0-|---------------0-|-----------------|-----3-0---------|
|-0-------------0-|---0---0---------|---------0-------|-5-----0-----0---|
|-2---------------|-1-1---1-----1-4-|-----------------|-3-----3---------|
|-3---------------|-------------3-5-|-------5---5-----|-5---------------|
|-----------------|-1---------------|-3-----------3---|-------3---------|


  , . , . , . , .   , . , . , . , .   , . , . , . , .   , . , . , . , .
|-----------------|-----------------|---------------2-|---3-------------|
|-------0-0-------|-----------------|---------0---3-0-|-------------0---|
|-------------0-2-|---0-------------|-------0-------0-|-------------0---|
|-2---------------|-1-----------1---|-0---------------|---------2-------|
|-3---------------|-3-----0---------|-2---------------|-------2---------|
|-----------------|-----------------|-----------------|-0---------------|

[ Tab from: http://www.guitartabs.cc/tabs/j/joel_billy/just_the_way_you_are_tab.html ]
  , . , . , . , .   , . , . , . , .   , . , . , . , .   , . , . , . , .
|-----0---0-2---3-|-----7---------3-|-----------------|-------0----------||
|-1-------1-------|-5-----5-----7---|-------1---------|-------1---3------||
|-0-------0-------|-5-----5---------|-----0-2---------|-----0-----4-----*||
|-2---------------|-5-----5---------|---0---1-------1-|---0-----------0-*||
|-0---------------|-5-----5---------|-----------------|------------------||
|-----------------|-----------------|-3---------------|-3----------------||


   , . , . , . , .   , . , . , . , .   , . , . , . , .   , . , . , . , .
||-----------------|-----------------|-------0-0---3---|-2---0-----------|
||-------1-----0-1-|-3-5-3-1-0-1-0---|-1---------------|-3-----3---1-----|
||-----0-2-------2-|-4-5-4-2-0-2-0-2-|-0---------------|-2---------------|
||---0---1---------|---------0-----4-|-2---------------|-0---------------|
||-----------------|-----------------|-3---------------|-----------------|
||-3---------------|-3---------------|-----------------|-----------------|


  , . , . , . , .   , . , . , . , .   , . , . , . , .   , . , . , . , .
|-----------2-----|-0---------------|-------------0---|-----------------|
|-3---------------|-3---------------|-1-------1-------|-3-------0-----0-|
|-2---------------|-1---------------|-0-----0---------|-5-5---------2---|
|-4---------------|-2-----2---------|-2---------------|-4---------------|
|-2-----2-2-------|---------2---1---|-0---------------|-5-----0---------|
|-----------------|-0---------------|-----------------|-----------------|


  , . , . , . , .   , . , . , . , .   , . , . , . , .   , . , . , . , .
|-----------------|-----------------|-------------6---|-5---3---------1-|
|-----------------|-3-----------8---|-----8---8---8---|-6---4---6-4---3-|
|-4---------------|-4---------------|-----8---8-------|-----------5-----|
|-5-------5-------|-3-------3---0---|-----------------|-3-----3-3-------|
|-5-----5-----5---|-5-----5---------|-6-----6-6-------|-----------------|
|-3---3-----------|-3---3-----------|-----------------|-----------------|


  , . , . , . , .   , . , . , . , .   , . , . , . , .   , . , . , . , .
|-----------5---3-|-----------------|-------------3---|-1---------------|
|-----------6---3-|-----------------|-------4-4-------|-----4-3---1---3-|
|-----------5---4-|-----------------|-3---------------|-2---------------|
|-0-----0-0-------|---------5-------|-5---------------|-----------------|
|-----------------|-------5-----5---|-3---------------|-----------------|
|-----------------|-3---------------|-----------------|-1---------------|


  , . , . , . , .   , . , . , . , .    , . , . , . , .   , . , . , . , .
|-----------------|-----------------||-------3-3/7---3-|---0-------------|
|-----------------|-----------------||-0---------------|-2-----0---------|
|-------0---------|-------0---------||-0---------------|-0-------2-0---0-|
|-0-----2---------|-0-----2---------||-----------------|-2-----------4---|
|-------3-0-----0-|-------3---0-3-0-||-----------------|-----------------|
|-----------------|-----------------||-3---------------|-0---------------|


  , . , . , . , .   , . , . , . , .   , . , . , . , .   , . , . , . , .
|---------0-3---0-|-----------------|-----------------|-----------------|
|-------0---------|---0-------------|-------0-1-3---0-|---------------0-|
|---------------0-|-----------0---0-|---------------0-|---0---0---------|
|-2---------------|---------2---3---|-2---------------|-1-1---1-----1-4-|
|-3---------------|-----0-2-----5---|-3---------------|-0-----------3-5-|
|-----------------|-0---------------|-----------------|-1---------------|


  , . , . , . , .   , . , . , . , .   , . , . , . , .   , . , . , . , .
|-----------------|-----------------|-----------------|-----------------|
|-----------------|-----3-0-------0-|-------0-0-0-----|-----------------|
|-----------0-----|-5-----0-----2---|-0-------------2-|---0-------------|
|-------------4-2-|-3-----3---------|-2---------------|-1-----------1---|
|-------2---------|-5---------------|-3---------------|-3-----2-0-------|
|-3-5-------------|-------3---------|-----------------|-----------------|


  , . , . , . , .   , . , . , . , .   , . , . , . , .   , . , . , . , .
|---------------2-|---3-------------|-----0---0-2---3-|-----7-5---------|
|---------0---3-0-|-------------0---|-1-------1-------|-5-----5-----8-8-|
|-------0-------0-|-------------0---|-0-------0-------|-5-----5---------|
|-0---------------|---------2-------|-2---------------|-5-----5---------|
|-2---------------|-------2---------|-0---------------|-5-----5---------|
|-----------------|-0---------------|-----------------|-----------------|


  , . , . , . , .   , . , . , . , .   , . , . , . , .   , . , . , . , .
|---------------1-|-----------1---1-|-------------1---|-3---------------|
|-----8-----8-----|-----1-------4---|-----1-----------|-3---6---4-3---1-|
|-----8-------8---|-----2-----------|-----2-----------|-4---------------|
|-----------------|-3-----3-3-------|-0-----0-0-------|-3-------5-------|
|-6-----6-6-------|-----------------|-----------------|-------5---------|
|-----------------|-----------------|-----------------|-3---------------|


  , . , . , . , .   , . , . , . , .   , . , . , . , .
|-------------3---|-2---0-----------|-----------------||
|-----------------|---------3---1---|-0---------------||
|-----3-------3---|-2---0-----------|-0---------------|| Fine.
|-----1-----------|-0-----0-4---2---|-4---------------||
|-3-----3-3-------|---------5-------|-5---------------||
|-----------------|-----------------|-3---------------||
Comments