Joe Strummer And The Mescaleros - Mondo Bongo Chords & Tabs

 

Mondo Bongo Chords & Tabs

Joe Strummer And The Mescaleros Chords & Tabs

Version: 1 Type: Tab

Mondo Bongo Tab

Link to official website for Joe Strummer & The Mescaleros: http://www.strummersite.com/

Artist: Joe Strummer & The Mescaleros 
Song: Mondo bongo 
Album: Global A Go-Go 
[" Global A Go-Go " CD] 


Tabbed by: Tor Haaberg, Norway
e-mail: tkerkul@hotmail.com


Intro:

Vocal: There's something there...


E----------------7-7-7-7-7--10----------------------------7-------------Y
B--------------------------------7-7-7--10--8-7--5-5-5-5----5--7-7-7-7--Y
G-----------------------------------------------------------------------Y 
D-----------------------------------------------------------------------Y
A-----------------------------------------------------------------------Y
E---SL14/0--------------------------------------------------------------Y

E----------------7-7-7-7-7--10--------------------------3---------------Y
B---------------------------------7-7-7--10--8-7--5-5-5---/7-/3---------Y
G-----------------------------------------------------------------------Y 
D-----------------------------------------------------------------------Y
A-----------------------------------------------------------------------Y
E-----------------------------------------------------------------------Y


Verse:

[ Tab from: http://www.guitartabs.cc/tabs/j/joe_strummer_and_the_mescaleros/mondo_bongo_tab.html ]
E--2-----2------------------------------------------0-------------------Y
B----3-----3----2-----2------0-2-3-2-0-0-----3-3--3---------------------Y
G------4-----4----3-----3--------------------1-1--1---------------------Y   
D-------------------4-----4---------------------------------------------Y
A-----------------------------------------------------------------------Y
E-----------------------------------------------------------------------Y

E--2-----2------------------------------------------0-------------------Y
B----3-----3----2-----2------0-2-3-2-0-0-----3----3---------------------Y
G------4-----4----3-----3--------------------1----1---------------------Y    
D-------------------4-----4---------------------------------------------Y
A-----------------------------------------------------------------------Y
E----------------------------------------/3---/5------------------------Y


Song in complete order:

Intro
verse
intro
verse
intro
verse 1 line x2
intro
verse
break
verse 1 line X2
break with intro/fills
verse
outro - repeat verse


There are some other guitar fills etc. These should be easy to work out,
but this is the main pattern that goes generally through the whole song.
Any corrections or thoughts etc, about this tab, feel free to e-mail me at:  tkerkul@hotmail.com