Joe Satriani - Turkey Man Chords & Tabs

 

Turkey Man Chords & Tabs

Joe Satriani Chords & Tabs

Version: 1 Type: Tab 0 ratings
1 star 2 stars 3 stars 4 stars 5 stars
comments

Turkey Man Tab

                                 Turkey Man                                    


Piste 1
                                                                         
E||----------------------------------|------17--------------------------|
B||------------------------------17--|--15----------17------------------|
G||----------------------14--14------|----------14----------14----------|
D||--------------14--12--------------|------------------12----------14--|
A||------12--12----------------------|--------------------------12------|
E||--10------------------------------|----------------------------------|


                                                          
---------------------------|------12---------------------|
-----------------------12--|--10---------12--------------|
-----------------9--9------|----------9---------9--------|
-----------9--7------------|-----------------7--------9--|
-----7--7------------------|-----------------------7-----|
--5------------------------|-----------------------------|


                                                                
------------------------------|------14------------------------|
--------------------------14--|--12----------14----------------|
------------------11--11------|----------11---------11---------|
-----------12--9--------------|------------------9---------12--|
-----9--9---------------------|-------------------------9------|
--7---------------------------|--------------------------------|


                                                      
--------------------------|-----9--------------------|
-----------------------9--|--7--------9--------------|
-----------------6--6-----|--------6--------6--------|
-----------7--4-----------|--------------4--------7--|
-----4--4-----------------|--------------------4-----|
--2-----------------------|--------------------------|

[ Tab from: http://www.guitartabs.cc/tabs/j/joe_satriani/turkey_man_tab.html ]
                                                         
---------------------------|-----10---------------------|
-----------------------10--|--8---------10--------------|
-----------------7--7------|---------7---------7--------|
-----------7--5------------|----------------5--------7--|
-----5--5------------------|----------------------5-----|
--3------------------------|----------------------------|


                                                                      
----------------------------------|------17--------------------------|
------------------------------17--|--15----------17------------------|
----------------------14--14------|----------14----------14----------|
--------------14--12--------------|------------------12----------14--|
------12--12----------------------|--------------------------12------|
--10------------------------------|----------------------------------|


                                                                  
----------------------------------|------------------------------|
------------------------------19--|--------------------------14--|
----------------------16--16------|------------------11--11------|
--------------17--14--------------|-----------12--9--------------|
------14--14----------------------|-----9--9---------------------|
--12------------------------------|--7---------------------------|


                                                          
|---------------------------|---------------------------||
|---------------------------|---------------------------||
|*-----------------7--0--6--|--0--7--0--6--0--7--0--6--*||
|*-----------7--5-----------|--------------------------*||
|------5--5-----------------|---------------------------||
|---3-----------------------|---------------------------||


                                                              
--------------------------|----------------------------------|
--------------------------|------------------------------19--|
-----------------7--0--6--|----------------------16--16------|
-----------7--5-----------|--------------17--14--------------|
-----5--5-----------------|------14--14----------------------|
--3-----------------------|--12------------------------------|


                                                             
------17--------------------------|-------------------------|
--15----------17------------------|-------------------------|
----------14----------14----------|-------------------11----|
------------------12----------14--|--------------0----------|
--------------------------12------|--------12---------------|
----------------------------------|--10---------------------|
Comments