Joe Satriani - Top Gun Anthem Chords & Tabs

 

Top Gun Anthem Chords & Tabs

Joe Satriani Chords & Tabs

Version: 2 Type: Tab 0 ratings
1 star 2 stars 3 stars 4 stars 5 stars
comments

Top Gun Anthem Tab

E------------------------------------------------------------------
B-----8-8-6/5-6/5--------------/6-6/5---------------8-8-6/5-6/5----
G-o-5-------------7-7-5-7/9-7-9-------7/9-7-7-----5-------------7-7
D-o----------------------------------------------------------------
A------------------------------------------------------------------
E------------------------------------------------------------------
[ Tab from: http://www.guitartabs.cc/tabs/j/joe_satriani/top_gun_anthem_tab_ver_2.html ]
E------------------------------8-8-6/5-6/5-------------------5/6-6/5
B-------------5/6-6---/8-----6-------------8-8-6-8-8/10-8-10--------
G-5-7-7/9-7-9-------5-----------------------------------------------
D-------------------------------------------------------------------
A-------------------------------------------------------------------
E-------------------------------------------------------------------

E--------------8-8-6/5-6/5-------------------6-6---8--------
B-8/10-8-8---6-------------8-8-6-8-8/10-8-10-----6----------
G-------------------------------------------------------o---
D-------------------------------------------------------o---
A-----------------------------------------------------------
E-----------------------------------------------------------

Enjoy

VAN xxx
Comments