Joe Satriani - The Power Cosmic 2000 Part 2 Chords & Tabs

 

The Power Cosmic 2000 Part 2 Chords & Tabs

Joe Satriani Chords & Tabs

Version: 1 Type: Tab 0 ratings
1 star 2 stars 3 stars 4 stars 5 stars
comments

The Power Cosmic 2000 Part 2 Tab

T=left hand tap
t=right hand tap


    w/disto.delay.phaser
[||--------------13--------------|----------------17----------------|
[||-----------11----11-----------|-------------15----15-------------|
[||---------8----------8---------|----------12----------17----------|
[||------12--------------12------|-------15----------------15-------|
[||---10--------------------10---|----13----------------------13----|
[||-8--------------------------8-|-11----------------------------11-|
    T  T  t T  T  t T  T  t T T   sim...

                                         *2
[--------------13--------------|---------||
[-----------11----11-----------|---------||
[---------8----------8---------|---------||
[------12--------------12------|---------||
[---10--------------------10---|---------||
[-8--------------------------8-|---------||


[ Tab from: http://www.guitartabs.cc/tabs/j/joe_satriani/the_power_cosmic_2000_part_2_tab.html ]
[--------------13--------------|-------------10--------------|
[-----------11----11-----------|-----------8----8------------|
[---------8----------8---------|---------5--------5----------|
[------12--------------12------|-------8------------8--------|
[---10--------------------10---|-----6----------------6------|
[-8--------------------------8-|---4--------------------4----|


|----------------18----------------|---------------15---------------|
|-------------16----16-------------|------------13----13------------|
|----------13----------13----------|---------10----------10---------|
|-------17----------------17-------|------13----------------13------|
|----15----------------------15----|---11----------------------11---|
|-13----------------------------13-|-9----------------------------9-|


|--------------13----------------]
|-----------11----11-------------]
|---------8----------8-----------]
|------12--------------12--------]
|---10--------------------10-----]
|-8--------------------------8---]

townesk8r@yahoo.com
Comments