Joe Satriani - The Crush Of Love Chords & Tabs

 

The Crush Of Love Chords & Tabs

Joe Satriani Chords & Tabs

Version: 1 Type: Bass Tab 0 ratings
1 star 2 stars 3 stars 4 stars 5 stars
comments

The Crush Of Love Bass Tab

The Crush Of Love
By Joe Satriani
>From the album "Dreaming #11" of 1988

I play it on 4-String Bass Guitar with standard tune, without a Pick.
Here, it is exactly like what you hear.

------------------------------------------------------------------------------------------------
					 The Crush Of Love
					        By
					   Joe Satriani

  (1)

G ||----------------------------------------------------------------------------|
D ||----------------------------------------------------------------------------|
A ||----------------------------------------------------------------------------|
E ||--5-5-5-5-5-5-5-5---3-3-3-3-3-3-3-3---1-1-1-1-1-1-1-1----1-1-1-1-1-1-1-1----|

G ||----------------------------------------------------------------------------|
D ||----------------------------------------------------------------------------|
A ||----------------------------------------------------------------------------|
E ||--5-5-5-5-5-5-7-8---3-3-3-3-3-3-3-3---1-1-1-1-1-1-1-1----1-1-1-1-1-1-1-1----|

G ||----------------------------------------------------------------------------|
D ||----------------------------------------------------------------------------|
A ||----------------------------------------------------------------------------|
E ||--5-5-5-5-5-5-5-5---3-3-3-3-3-3-3-3---1-1-1-1-1-1-1-1----1-1-1-1-1-1-1-1----|
[ Tab from: http://www.guitartabs.cc/tabs/j/joe_satriani/the_crush_of_love_btab.html ]
G ||---------------------------------------------------------------------------||
D ||---------------------------------------------------------------------------||
A ||---------------------------------------------------------------------------||
E ||--5-5-5-5-5-5-7-8---3-3-3-3-3-3-3-3---1-1-1-1-1-1-1-1----1-1-1-1-1-1-1-1---||


  (2)

G ||---------------------------------------------------------------------------------|
D ||---------------------------------------------------------------------------------|
A ||----------------------------------------5555555555555555---33333333--22222222----|
E ||--5555555555555555---3333333333333333--------------------------------------------|

G ||---------------------------------------------------------------------------------|
D ||---------------------------------------------------------------------------------|
A ||----------------------------------------5555555555555555---33333333--777777-5\---|
E ||--5555555555555555---3333333333333333--------------------------------------------|


  (3)

    Play 3 Times
G ||------------------------------------------------|
D ||------------------------------------------------|
A ||------------------------------------------------|
E ||---11111111---33333333---00000000---55555555----|


G ||---------------------------------------------|-|
D ||---------------------------------------------|-|
A ||---------------------------------------------|-|
E ||---11111111-11111111----33333333-33333333----|-|

How to Play:  (1), (2), (1), (3), (2), (1) Till the End
It is a very cool Piece, I enjoy it very Much.


Tabed By HAZEM AMMARI - Bassist of Heavy Metal Band "Black Coffin"
For any questions E-mail me at haz_met@hotmail.com
Comments