Joe Satriani - Surfing With The Alien Chords & Tabs

 

Surfing With The Alien Chords & Tabs

Joe Satriani Chords & Tabs

Version: 3 Type: Bass Tab 0 ratings
1 star 2 stars 3 stars 4 stars 5 stars
comments

Surfing With The Alien Bass Tab

   
Hi, this is my first tab, so please give your opinions.
It's very easy to play, it has 3 parts an a bridge: so here it is:


Part A:
|-------------------------|
|-------------------------| 
|-----------3-3333333333--|
|33333333336-6----------63|

Part B
|-----------------------------------------------------------------|
|-----------------------------------------------------------------|
|--------33333333--------55555555--------333333333--------55555555|
|11111111--------33333333--------11111111---------33333333--------|
[ Tab from: http://www.guitartabs.cc/tabs/j/joe_satriani/surfing_with_the_alien_btab_ver_3.html ]
Part C
|------------|      |------------|      |------------|
|------------|X4    |------------|X4    |------------| X4
|444444442454|      |666666664676|      |888888886898|
|------------|      |------------|      |------------|

Bridge
|---0---2-----|
|---------3---| (this part is slowly than the others)
|-----------3-|
|3------------|

So you play:
6 times the Part A
1 time the Part B
1 time the Part C
1 time the bridge
4 times the Part A
1 time the Part B
Play the part A until the end




It's very important to play it with a very good guitar player.
Enjoy  playing this tab, and please give me your comments.


Comments