Joe Satriani - Starry Night Chords & Tabs

 

Starry Night Chords & Tabs

Joe Satriani Chords & Tabs

Version: 1 Type: Bass Tab 0 ratings
1 star 2 stars 3 stars 4 stars 5 stars
comments

Starry Night Bass Tab

         BaSS taBs For Starry Night...
         Tabbed By /J/SY//

         This is pretty much it, listen to the song for the tempo.
         EnJoY!!!    

G----------------------------------------------------------------
D----------------------------------------------------------------
A----3----5----7----8----10----12----12108----15-----------------  4x
E----------------------------------------------------------------
[ Tab from: http://www.guitartabs.cc/tabs/j/joe_satriani/starry_night_btab.html ]
G----------------------------------------------------------------
D----------------------------------------------------------------
A----8----3----8----7----5----3----------------------------------  3x
E----------------------------------------------------------------

G----5----7----9----10----12----14----141210----17---------------  2x
D----------------------------------------------------------------
A----------------------------------------------------------------
E----------------------------------------------------------------

then play part 1 twice

G----------------------------------------------------------------
D----------------------------------------------------------------
A----3--5--6--5--3--0--0--3--------------------------------------  8x
E----------------------------------------------------------------
Comments