Joe Satriani - Smf Chords & Tabs

 

Smf Chords & Tabs

Joe Satriani Chords & Tabs

Version: 1 Type: Tab 0 ratings
1 star 2 stars 3 stars 4 stars 5 stars
comments

Smf Tab

#----------------------------------PLEASE NOTE--------------------------------#
#This file is the author's own work and represents their interpretation of the#
#song. You may only use this file for private study, scholarship, or research.#
#-----------------------------------------------------------------------------#

S.M.F. as performed on Joe Satriani

by Joe Satriani, 				!!!!!!!TOTALY COMPLETE!!!!!!
tabbed by Niels Ruelens

This is my first attempt to tab something and I've only been playing for 2 years,
so have mercy on me.
I used a very accurate program for slowing down the hard parts, so I think my tab is
about 100% complete and almost correct. (have mercy)
But enough of the chit-chat. Here's S.M.F. and have fun!

|----------------------------------------------------------7--------------|
|-------------------------------------------------------7-----------------|
|--9b(11)r9-7b(8)----9--7---------7~~------------9b(11)-------------------|
|-----------------9-------9--7--9-----------------------------------------|
|-------------------------------------------------------------------------|
|-------------------------------------------------------------------------|

|-------------------------------------------------------------------------|
|--10-------------------------------10------------------------------------|
|------9b(10)r9b(10)r9-7-----9b(11)----9b(11)r9-7---9-7-------------------|
|------------------------9-7----------------------9-----9-7---------------|
|-----------------------------------------------------------9-8-7\5-------|
|-------------------------------------------------------------------------|

|-----------------------------------------------7---10--------------------|
|------------------------------------------7-10---7----7-10b(12)----------|
|-------------------------------------7-------------------------9b(10)-7--|
|--------------------7---7---7---7-9--------------------------------------|
|----x-5-/7\-5----\9---9---9---9------------------------------------------|
|-------------------------------------------------------------------------|

|-------------------------------------------------------------------------|
|-------------------------------------------------------------------------|
|-11--13-----11--13-----11--13--11--11--13------13--11------14--11--13--11|
|-12-----12--12-----12--12----------12------12----------12----------------|
|-------------------------------------------------------------------------|
|-------------------------------------------------------------------------|
note: 12 on D string rings constantly

|----------------------------------------------------------------------------|
|----------------------------10-12----10-------9-----------------------------|
|-----11--10-9----9----10h11-------11----11-10---10-11-10-9-7h9-7---9--7b(9)-|
|-14-----------12---12--------------------------------------------9----------|
|----------------------------------------------------------------------------|
|----------------------------------------------------------------------------|
							   AH   vibr w/bar
|---------------------------------------------7----------------------10b(12)-|
|-----------------------------7------7--7--7-----7--10b(12)12---12~~---------|
|-----------------------------9b(11)-----------------------------------------|
|----------------------------------------------------------------------------|
|-7b(9)-5---------5~~-x\-----------------------------------------------------|
|----------7\5/7-------------------------------------------------------------|
				        shake-|
|--15b(17)-14--13--12--------------------------------------------------------|
|----------------------15--12--17b(19)-15b(17)---12------15------------------|
|----------------------------------------------------13------13--------------|
|----------------------------------------------------------------------------|
|----------------------------------------------------------------------------|
|----------------------------------------------------------------------------|

|----------------------------------------------------------------------------|
|-15--12------12-------------------------------------------------------------|
|---------13------12--13-----------------------------------------------------|
|-------------------------11b(13)-9------9--9--9~~~~-------------------------|
|----------------------------------------------------------------------------|
|----------------------------------------------------------------------------|


Harmonica thingy till 1:46   SOLO TIME!!!! OH YEEAAAHH!!!!!

|---------7--10b(12)r10--7--------------------------7---7-----------10b(12)----|
|--7--10-------------------10-7-------------------7---7-10b(12)-7-7------------|
|-------------------------------9-7--------9b(11)------------------------------|
|-----------------------------------9-7----------------------------------------|
|------------------------------------------------------------------------------|
|------------------------------------------------------------------------------|
        |-----3.5 TIMES-----| |-----1.5 TIMES----------------------------------|
|-r10-7---------10p7-------10p7-------------7h10-------7h10--10b(12)r10~~------|
|-------10-7---------10p7-------10p7--7h10--------7h10-------------------------|
|------------------------------------------------------------------------------|
|------------------------------------------------------------------------------|
|------------------------------------------------------------------------------|
|------------------------------------------------------------------------------|
			     rake-|
|-7------7----------7---------------------------------------------7----------|
|----10-----10b(12)---7-10-7-----7------------------------------7------------|
|----------------------------9-x---9b(10)r9b(10)r9-7---7-9b(11)--------------|
|----------------------------------------------------9-----------------------|
|----------------------------------------------------------------------------|
|----------------------------------------------------------------------------|
			       AH----|
|-------------------7--------7----------7--------------10--------------------|
|-10b(12)-7--10b(12)--10b(12)--10b(12)----10-7-------7----10-----------------|
|----------------------------------------------9b(11)--------9b(11)-7~~------|
|-----------------------------------------------------------------------9-7--|
|----------------------------------------------------------------------------|
|----------------------------------------------------------------------------|
	    w/bar   trill
|----------------------------------------------------------------------------|
|----------------------------------------------------------------------------|
|-7b(9)r7--------------------------------------------------------------------|
|---------7-6~~---------------------7-7-7-7-7-7-7-7-7-7-7-7-7----------------|
|---------------9-7--5-(7)-5\----/9--9-9-9-9-9-9-9-9-9-9-9-9-9-7b(9)r7-5---7-|
|------------------------------------------------------------------------7---|
								         slow bend
|------------------------------------------------------------------7---------|
|-------------------------------------7-9-9b(10)r9-7-9-7-7-----7-7---7-7-----|
|-----------------7b(9)------7~~--7-9-7-9-9b(10)r9-7-9-7-9b(11)--------9b(11)|
|-----------7-7-9--------7-9------9------------------------------------------|
|-5---5~~---9-9----------9---------------------------------------------------|
|---7------------------------------------------------------------------------|

|----------------------------------------------------------------------------|
|-7-------7-------7-------7-------7-------7-------7-------7-------7-------7-7|
|---9b(11)--9b(11)--9b(11)--9b(11)--9b(11)--9b(11)--9b(11)--9b(11)--9b(11)---|
|----------------------------------------------------------------------------|
|----------------------------------------------------------------------------|
|----------------------------------------------------------------------------|
[ Tab from: http://www.guitartabs.cc/tabs/j/joe_satriani/smf_tab.html ]
|----------------------------------------------------------------------------|
|-12-10b(12)-12-10b(12)~~-12-10------10b(12)---------------------------------|
|-------------------------------11----------11b(13)r11-9-11---9-----------7--|
|-----------------------------------------------------------9---11b(12)-9----|
|----------------------------------------------------------------------------|
|----------------------------------------------------------------------------|

|-----------7--------10b(11.5)-7-----------------------------------------------|
|--------------------------------10-7-------7----------------------------------|
|--------7~~--------------------------9b(11)--7-9-7---9-7----------------------|
|-12-9~~--------------------------------------------9--------------------------|
|---------------------------------------------------------9~~------------------|
|------------------------------------------------------------------------------|
         slow release  prebend         |---2 TIMES-----------------------------|             slow vibratio and slow release
|-------10-12b(14)r12-(14)r13-(14)r13-13-13b(14)-13b(14)-13b(14)-13b(14)~~r13--|
|----12------------------------------------------------------------------------|
|-11---------------------------------------------------------------------------|
|------------------------------------------------------------------------------|
|------------------------------------------------------------------------------|
|------------------------------------------------------------------------------|
	      ??
|-----13b(14)-12----------------------------------0-0-0-0--------------------|
|-15~~--------15b(12)r15-12-12-15b(17)----------0-0-0-0-0--------------------|
|-----------------------------------------------0----------------------------|
|-------------------------------------------2~~-----------2~~x---------------|
|-------------------------------------10\0--2~~--------------x---------------|
|-------------------------------------10\0-----------------------------------|
slow bend
|---------7---10b(12)-7----------------------7---10b(12)-10~x\-----------------|
|-------7---7-----------10b(12)-7-10-------7---7-------------------------------|
|-9b(11)-----------------------------9b(11-------------------------------------|
|------------------------------------------------------------------------------|
|------------------------------------------------------------------------------|
|------------------------------------------------------------------------------|
                  slow bend   slow bend |--2 TIMES-----------------------------|
|----------7------7------7---------------7--------------7----------------------|
|-10b(12)~~--10-7-10b(12)10b12)-7-10b(12)--10-7-10b(12)---10-7-10b(12)---------|
|------------------------------------------------------------------------------|
|------------------------------------------------------------------------------|
|------------------------------------------------------------------------------|
|------------------------------------------------------------------------------|

|-7-------------7----------------------------7---------7-----------------------|
|---10-7----------10p7-------------------------10b(12)---10-7------------------|
|--------9b(11)--------9b(11)r9p7-9--7b(9)-------------------------------------|
|------------------------------------------9-----------------------------------|
|------------------------------------------------------------------------------|
|------------------------------------------------------------------------------|
       slow bend---------------------------------------------------------------|
|---10-11-12b(14)14-14-14-14-14-12b(14)r12-10-12-12b(14)-10----12-10-----------|
|-12--------------------------------------------------------12-----------------|
|--------------------------------------------------------------------11~~------|
|------------------------------------------------------------------------------|
|------------------------------------------------------------------------------|
|------------------------------------------------------------------------------|

|------------10b(12)----17b(19)19-19~~19~~----10-7------/12-7----7-----------|
|-10b(12)12~~--------------------------------------10-7-------10---10p9p7h9--|
|----------------------------------------------------------------------------|
|----------------------------------------------------------------------------|
|----------------------------------------------------------------------------|
|----------------------------------------------------------------------------|

|---------5--------------7---------------------------------------------------|
|-9p7p5h7----7p5---5---------------------------------------------------------|
|----------------7---7-8------10p9p7---9p7---7---------------12\-------------|
|------------------------------------9-----9---9-7-----------12\-------------|
|--------------------------------------------------9p8p7---------------------|
|--------------------------------------------------------10------------------|

Back to harmonica thingy till 4:23

Outro
				    feedback w/bar
|-10-7-----------------------------------------------------------------------|
|------10-7-------------------------------------------------------x-x-x------|
|-----------9--7h9-7------------7~~---------x\--------------------x-x-x------|
|---------------------------18\-7~~---------x\-------------7\---------x------|
|---------------------------18\----------------------------------------------|
|---------------------------------------------1/7~~\----/9-------------------|

|-10-7-------------------------7--------------------------10\-/9---------------|
|-10-7-10-7---7----------------7-10-----------------------10\----x\------------|
|-----------9---10-10p9p7h9~~-------9b(11)r9p7---7-9b(11)--------x\------------|
|----------------------------------------------9-----------------x\------------|
|------------------------------------------------------------------------------|
|------------------------------------------------------------------------------|
feedback w/bar trill        |-------------2 TIMES------------------------------|
|-7~~--------------------------------------------------------------------------|
|-7~~--------------------------------------------------------------------------|
|------------------------------------------------------------------------------|
|-------------------x\------4-4--4--3-3-3--1-1---4-4--3-3-3-3-2------x\--------|
|---------------------x\----2-2--2--4-4-4--2-2---2-2--4-4-------2----x\--------|
|------------5-(7)------x\-----------------------------------------------------|

|----------------------------------------------------------------------------|
|----------------------------------------------------------------------------|
|----------------------------------------------------4-4-4-4-2-2-2-2-2-------|
|-4-4-4-4--7-7--9-9--4-4-4--7-7--10-10-9-7----4-4-4--------------------3-3-3-|
|-2-2-2-2--5-5--7-7--2-2-2--5-5--8--8--7-5----2-2-2--------------------------|
|----------------------------------------------------------------------------|
    AH w/bar
|----------------------------------------------------------------------------|
|--------------------------7h9-7----7------------7-9----------------7-9p7----|
|-4-4--------7h9-7h9-7-----------10---10p9----10-----10-9-10p9---10-------10-|
|------4~~---9---9---9-------------------------------------------------------|
|------2~~-------------------------------------------------------------------|
|----------------------------------------------------------------------------|

|----------------------------------------------------------------------------|
|-7-9----14h15p14p12p10-10/12------7-9h10p9p7----9p7-------------------------|
|-------------------------------10------------10-----10--9h10p9---10-9-7-9---|
|--------------------------------------------------------9-------------------|
|----------------------------------------------------------------------------|
|----------------------------------------------------------------------------|
						     trill
|-10-7-----------------------------------------------------------------------|
|------10-7------------------------------------------------------------------|
|-----------9-7--------------------------------------7-(9)-------------------|
|---------------9------------------0-2---------------------------------------|
|------------------------------0-2-----2-5-2---2~~---------------------------|
|------------------0-2-0-2-0-2---------------5-------------------------------|

And play the end along with the harmonica

Niels Ruelens from Belgium
Comments