Joe Satriani - Sleep Walk Chords & Tabs

 

Sleep Walk Chords & Tabs

Joe Satriani Chords & Tabs

Version: 2 Type: Tab 0 ratings
1 star 2 stars 3 stars 4 stars 5 stars
comments

Sleep Walk Tab

Sleep Walk

this is an easy and beautiful song by mr. satriani

e-------------------------------------------------|
B------------11----11-----------------------------|
G------------10----10-----------------------------|
D--/11-11----11-11-11-------11--------------------|
A--/8--8-----------------12-12-12-11--------------|
E-------------------------------------------------|

e-----15/17/24 \19------------------------------------|
B-----------------------------------------------------|
G-----------------------------------------------------|
D-----------------------------------------------------|
A-----------------------------------------------------|
E-----------------------------------------------------|

e--------------------------------------------------|
B--------------14----------------------------------|
G------------------13---11-13-13b(14)--------------|
D--8-8-8-8/10-----------13-15-15b(16)--------------|
A--9-9-9-9/11--------------------------------------|
E--------------------------------------------------|

e--------------------------------------------------|
B----------/14-------------------------------------|
G--13-11---------13---11-13-13b(14)----------------|
D--15-13--------------13-15-15b(16)----------------|
A--------------------------------------------------|
E--------------------------------------------------|

e--------------------------------------------------|
B--------------------------------------------------|
G--13-11---10/13---10-13-10------------------------|
D--15-----------------------11---------------------|
A------------------------------13------------------|
E--------------------------------------------------|

e--------------9-13-9------------------------------|
B-----------11-------------------------------------|
G--------10----------------------------------------|
D-----11-------------------------------------------|
A--13---------------------11-11-11-----------------|
E--------------------------------------------------|

e--------------------------15/17/24 \19---------------|
B-----------------------------------------------------|
G-----------------------------------------------------|
D11/1311/13--13--13---------------------------------|
A13/15-13/15--15--15---------------------------------|
E-----------------------------------------------------|

e--------------------------------------------------|
B--------------------------------------------------|
G---------------14---/9---11-13-13b(14)------------|
D--8-8-8-8/10-------------13-15-15b(16)------------|
A--9-9-9-9/11--------------------------------------|
E--------------------------------------------------|


e--------------------------------------------------|
B-----------14------14-----------------------------|
G--13-11--------15------15---11-13-13b(14)---------|
D--15-13---------------------13-15-15b(16)---------|
A--------------------------------------------------|
E--------------------------------------------------|

e---------------------------------------------13---|
B------------------------------------------14------|
G--13-11---13--10-13-10-----------------15---------|
D--15-13----------------11-----------15------------|
A--------------------------13-----16---------------|
E------------------------------17------------------|

e--18----------------------------------------------|
B--------------------------------------------------|
G-----------------11/13-11/13-11/13----------------|
D-------11-11-11-13/15-13/15-13/15--11/----------|
A--------------------------------------------------|
E--------------------------------------------------|
[ Tab from: http://www.guitartabs.cc/tabs/j/joe_satriani/sleep_walk_tab_ver_2.html ]
e--------------------------------------------------|
B------------------------11--11------16/18---------|
G--------------------------------------------------|
D--11-11-11-11/15----11----------------------------|
A--12-12-12-12/16----------------------------------|
E--------------------------------------------------|

e--------------------------------------------------|
B--16-14--------16/18-16----14---------------------|
G--------14-14-----------14----13-13---------------|
D--------------------------------------------------|
A--------------------------------------------------|
E--------------------------------------------------|

e--------------------------------------------------|
B---------------------14b(15)----14b(15)-----------|
G--------15----13--16--------16---------16--13-----|
D--13-15----13-------------------------------------|
A--------------------------------------------------|
E--------------------------------------------------|

e--------------------------------------------------|
B--------------------------------------------------|
G--------------------------------------------------|
D--16-14---------16-14---------14------------------|
A---------16-14---------16-14-----16---------------|
E--------------------------------------------------|

e--------------------------------------------------|
B--------16/18--16-14-16--------16/18--16----------|
G--15-15-----------------14-14---------------------|
D--------------------------------------------------|
A--------------------------------------------------|
E--------------------------------------------------|

e--------------------------------------------------|
B--------------------------------------------------|
G--14-13--13-13/1613/1613/16--/13---------------|
D---------15-15/18-15/18-15/18--/15---------------|
A--------------------------------------------------|
E--------------------------------------------------|

e--12-9--------------------------------------------|
B-------12-9----------------------14---------------|
G------------11-9---------------------13-----------|
D-----------------11-9-----------------------------|
A----------------------11--------------------------|
E--------------------------------------------------|

e--------------------------------------------------|
B----------------------------14--------------------|
G--11-13-13b(14)-13-11----------13-13/-------------|
D--13-15-15b(16)-15-13-----------------------------|
A--------------------------------------------------|
E--------------------------------------------------|

e--------------------------------------------------|
B--------------------------------------------------|
G--11-13-13b(14)-13-11-------11/13---10-13-10------|
D--13-15-15b(16)-15-13-----------------------------|
A--------------------------------------------------|
E--------------------------------------------------|

e--------------------------------------------------|
B--------------------------------------------------|
G-----------------------6---10-10------------------|
D--11-------------------8---11-11------------------|
A-----13----16-16-16--9---9------------------------|
E--------------------------------------------------|

e--------------------------------------------------|
B--------------------------------------------------|
G--------------------------------------------------|
D(10)/ (8)/(6)------------------------------------|
A(11)/(10)/(8)------------------------------------|
E--------------------------------------------------|

e--15/17/24 \19---------------------------------------|
B-----------------------------------------------------|
G-----------------------------10----------------------|
D--------------------------10-------------------------|
A-----------------------11----------------------------|
E--------------------13-------------------------------|

any doubt or coment my mail is rebelde_guitarrista@hotmail.com
Comments