Joe Satriani - Sleep Walk Chords & Tabs

 

Sleep Walk Chords & Tabs

Joe Satriani Chords & Tabs

Version: 1 Type: Tab 0 ratings
1 star 2 stars 3 stars 4 stars 5 stars
comments

Sleep Walk Tab

   
C      Am      Fm     G


e----------------------|-------------------------------|
B---13~~---(13)---8----|---6---8---/----9~~----8-----6-|
G----------------------|---7---9---/---10~~----9-----7-|
D----------------------|-------------------------------|
A----------------------|---8--10---/---11~~---10-----8-|
E----------------------|-------------------------------|


C      Am      Fm     G     C     Am

[ Tab from: http://www.guitartabs.cc/tabs/j/joe_satriani/sleep_walk_tab.html ]
e-----------------------------|--------------------------------------------------------6-|
B--12/13--(13~)--(13~)--8--(8)|--6---8--/-9-\-8---6--6/8---5--8--5--------------10--12---|
G-----------------------------|--7---9--/10-\-9--------------------5----------9----------|
D-----------------------------|--------------------------------------7-----10------------|
A-----------------------------|--8--10--/11-\10-------------------------12---------------|
E-----------------------------|----------------------------------------------------------|


F     G      C      Am      F     G

e---------------------------------------------------15/17/20/19--------------------------|
B--12------------------------------------------------------------------------------------|
G-----5--5--5--5---7/--9---7/--9---7/--9--7/--9--------------------2--2--2--2--2---4---4-|
D------------------------------------------------------------------3--3--3--3--3---5---5-|
A------------------8/-10---8/-10---8/-10---8/-10-----------------------------------------|
E----------------------------------------------------------------------------------------|
Comments