Joe Satriani - Love Thing Chords & Tabs

 

Love Thing Chords & Tabs

Joe Satriani Chords & Tabs

Version: 1 Type: Bass Tab 0 ratings
1 star 2 stars 3 stars 4 stars 5 stars
comments

Love Thing Bass Tab

Bass Tablature for Love Thing--Joe Satriani

(Each Number represents 4 notes)

G-----------------------------------------------------------------------
D-----------------------------------------------------------------------
A--------------------------4-0---------------------------------4-0------
E--0-0-0-0-0-0-4-4-0-0-0-0-----0-0-0-0-0-0-0-0-0-0-4-4-0-0-0-0-----0-0--


G-------------------------------------------------------------------------------
D-------------------------------------------------------------------------------
A--4-0-----2-2-4-4-----0-0-2-2-4-4-0-0---------------------------------4-0------
E------0-0---------4-4-----------------4-4-4-4-0-0-0-0-0-0-4-4-0-0-0-0-----0-0--
[ Tab from: http://www.guitartabs.cc/tabs/j/joe_satriani/love_thing_btab.html ]
G-------------------------------------------------------------------
D-------------------------------------------------------------------
A----------0-0-------------4-4-4-4---------0-0-------------0-0-0-0--
E--2-2-4-4-----4-4-2-2-4-4---------2-2-4-4-----4-4-2-2-4-4----------


G-------------------------------------------------------------------------
D-------------------------------------------------------------------------
A--2-2-4-4-----0-0-2-2-4-4-----0-0--2-2-4-4-----0-0-2-2-4-4-0-0-----------
E----------4-4-------------4-4--------------4-4-----------------4-4-4-4---

G---------------------------------------
D---------------------------------------
A--------------------------4-0----------
E--0-0-0-0-0-0-4-4-0-0-0-0-----0-0-0-0--



Figured out and Written by Jason Matthews----> skater29@hotmail.com
Comments