Joe Satriani - Going Down Chords & Tabs

 

Going Down Chords & Tabs

Joe Satriani Chords & Tabs

Version: 1 Type: Bass Tab 0 ratings
1 star 2 stars 3 stars 4 stars 5 stars
comments

Going Down Bass Tab

Going Down

Joe Satriani, Steve Vai and Eric Johnson (G3) Live in Concert

Tuning: Standard EADGBE

Main Riff
|-------------------|
|-------------------|
|-------------------|
|--10--8------------|
|---------8---------|
|------------11--8--|

Chords
|--8-----8-----10--|
|--8-----10----12--|
|--9-----10----12--|
|--10----10----12--|
|--10----8-----10--|
|--8-----8-----10--|

Bass Line (Main Riff)
|------------------------------------------------------------------------------------------|
|----------------------------------10-10-10-10-9-9-9-9-------------------------------------|
|------------------------------------------------------9-9-9-9-----------------------------|
|--8-8-8-8-8-8-8-8-8-8-8-8-8-8-8-8-----------------------------11-11-11-11-8-8-8-8-8-8-8-8-|
[ Tab from: http://www.guitartabs.cc/tabs/j/joe_satriani/going_down_btab.html ]
|------------------------------------------------------------------------------------------|
|-------------------------------------------------------10-10-10-10-9-9-9-9----------------|
|-----------------------8-8-8-8-8-8-8-8-8-8-8-8-8-8-8-8---------------------9-9-9-9--------|
|-8-8-8-8-8-8-6-6-7-7---------------------------------------------------------------11-11--|

|------------------------------------------------------------------------------------------|
|------------------------------------------------------------------------------------------|
|--------------------------------------------10-10-10-10-10-10-10-10-10-10-10-10-10-10-10--|
|11-11-8-8-8-8-8-8-8-8-8-8-8-8-8-8-6-6-7-7-------------------------------------------------|

|-------------------------------------------------------------------------------|
|---10-10-10-10-9-9-9-9---------------------------------------------------------|
|10---------------------9-9-9-9-------------------------------------------------|
|-------------------------------11-11-11-11-8-8-8-8-8-8-8-8-8-8-8-8-8-8-6-6-7-7-|

I think thats basically it... If you listen to the song and the way they play it you can figure
out where it all goes and how many times you do what...
But this'll give you a basic example of the song.

Luke.
email me: loop_de_luke@msn.com
Comments