Joe Satriani - Crowd Chant Chords & Tabs

 

Crowd Chant Chords & Tabs

Joe Satriani Chords & Tabs

Version: 2 Type: Tab

Crowd Chant Tab

This is an awesome song cant wait to see it live. some parts i wasnt sure 
of sorry bout that, and i couldnt figure out the whammi bar stuff so just 
make it up
this is my first time tabbing by the waY
Drop D tuning DADGBE

Intro:
0:10
E|--------------------------------------------------------------------------|
B|--------------------------------------------------------------------------|
G|--------------------------------------------------------------------------|
D|--h----h----h----h----9--11--h----h----h----h-----------------------------|
A|-9-11-9-11-9-11-9-11--7--9--9-11-9-11-9-11-9-11-14--13--------------------|
D|-9-11-9-11-9-11-9-11--------9-11-9-11-9-11-9-11-14--13--------------------|


E|--------------------------------------------------------------------------|
B|--------------------------------------------------------------------------|
G|---------------------------------------2----4-----------------------------|
D|--h----h----h----h----9--11--2----4----2----4-----------------------------|
A|-9-11-9-11-9-11-9-11--7--9---2----4----0----2-----------------------------|
D|-9-11-9-11-9-11-9-11---------2----4---------------------------------------|repeat


1st Solo/Crowd chant
0:25
|

E|--------------------|-------------------|---------------------------------|
B|--------------------|-------------------|---------------------------------|
G|-----9--11p9--------|-------------------|----9-11-11b(12)-9-11b(12)-------|
D|-11---------11p9h11-|-11--9-------------|-11------------------------------|
A|--------------------|--------11-9--7--4-|---------------------------------|
D|--------------------|-------------------|---------------------------------|



E|------------------------------------------|------9-------9----------------|
B|------------------------------------------|-12b----9-12b---9-12-12b-------|
G|-b11(12)-11-11-11-11-11-11-11-11-11-9-----|-------------------------------|
D|---------------------------------------11-|-------------------------------|
A|------------------------------------------|-------------------------------|
D|------------------------------------------|-------------------------------|
[ Tab from: http://www.guitartabs.cc/tabs/j/joe_satriani/crowd_chant_tab_ver_2.html ]
      _hold bend_
E|-14b--14-14-14rb-14-------|-9---------------------------------------------|
B|--------------------14-14-|---12p9----9h12p9------------------------------|
G|--------------------------|--------11--------9-11p9------9----------------|
D|--------------------------|-------------------------11p9------------------|
A|--------------------------|-----------------------------------------------|
D|--------------------------|-----------------------------------------------|


E|--------------------------------------------------------------------------|
B|--------------------------------------------------------------------------|
G|--------------------------------------------------------------------------|
D|-11--9--------------x-----------------------------------------------------|
A|--------11-9-7--4---x-7p4--7p4-7-4-7-4-7p4--7p4-7p4-7-4-2--7p4-7p4-7-4-7--|
D|--------------------------------------------------------------------------|

                        1:04 riff2
E|---------------------||---------------------------------------------------|
B|---------------------||---------------------------------------------------|
G|---------------------||.------9----------6-----8---------4-----6---------2|
D|---------------------||.--------------------------------------------------|
A|-4-7p4--7p4-7p4-pksl-||---11---11-----7-----9---9-----6-----7---7-----4---|
D|---------------------||11---------x-7-----9-------x-6-----7-------x-4-----|

                      1:21-1:27          2nd solo/Crowd chant
E|------------------||-----------------||-------------|---------------------|
B|------------------||-sorry-----------||-------------|-12-12-9-------9-----|
G|-----6---4-----4-.||----not----------||-------------|---------11-11---11--|
D|-------------6---.||--sure of chord--||-----2-4p2---|---------------------|
A|---6---6---6------||-----progression-||-2-4-------4-|---------------------|
E|-6----------------||-----------------||-------------|---------------------|


E|-----------|---------|-----------------------|-----------------------------|
B|-----------|whammi---|-----------------------|-----------------------------|
G|-9----9----|---stuff-|-11--11--11p9-11p9-11b-|-11--11--11p9----------------|
D|---11---11-|-for-4---|-11--11--11p9-11p9-11b-|-11--11--11p9-11p9h11--------|
A|-----------|-----bars|-----------------------|-----------------------------|
D|-----------|---------|-----------------------|-----------------------------|

play intro riff
repeat riff2 6 times

E|--------------------------------------------------------------------------|
B|--------------------------------------------------------------------------|
G|---------------------9--11------------------------------------------------|
D|--h----h----h----h---7--9-------------------------------------------------|
A|-9-11-9-11-9-11-9-11-------11---------------------------------------------|
D|-9-11-9-11-9-11-9-11-------11---------------------------------------------|

Enjoy