Joe Purdy - Wash Away Chords & Tabs

 

Wash Away Chords & Tabs

Joe Purdy Chords & Tabs

Version: 1 Type: Tab

Wash Away Tab

   
C         F         G         C         F

C

----------0-----0-----0-------|
-------------1-----1-----1----|
-------0----------------------|
--0/1-------------------------|
------------------------------|
------------------------------|

F

----------1-----1-----1-------|
-------1-----1-----1-----1----|
--0/1-------------------------|
------------------------------|
------------------------------|
------------------------------|

G (on 3rd fret)

----------1-----1-----1-------|
-------1-----1-----1-----1----|
--0/1-------------------------|
------------------------------|
------------------------------|
------------------------------|

F
[ Tab from: http://www.guitartabs.cc/tabs/j/joe_purdy/wash_away_tab.html ]
----------1-----1-----1-------|
-------1-----1-----1-----1----|
--0/1-------------------------|
------------------------------|
------------------------------|
------------------------------|

C

----------0-----0-----0--------|
-------------1-----1-----1-----|
-------0-----------------------|
--0/1--------------------------|
-------------------------------|
-------------------------------|

(and then back to top)


C                            F

I've got troubles Lord, but, not today,

G

cause they're gonna wash away,

F                  C

they're gonna wash away.


         ***

C                      F

I have sins Lord, but, not today,

G

cause they're gonna wash away,

F                  C

they're gonna wash away


         ***

C                             F

And I have friends Lord, but, not today,

G

cause they done washed away,

F                C

they done washed away


        ***

Tabbed by Will Pendered