Joe Purdy - Suitcase Chords & Tabs

 

Suitcase Chords & Tabs

Joe Purdy Chords & Tabs

Version: 1 Type: Tab

Suitcase Tab

   
-------------------------------------------------------------------------------
			     Suitcase - Joe Purdy
-------------------------------------------------------------------------------
Tabbed by:Bassbarr
Email:Seven_Years_Later@hotmail.com

can't belive more people arn't into his stuff. this song is off his new album only
4 seasons you can listen to it on www.joepurdy.com it's an awesome album listen to
it.

Tuning:Standard capo 4th



C: x32010
F: 133211
Am:x02210
G: 355211


Intro:

C C

           C               F        C 
Well don't worry with your suitcase dear
           C               F        C
Well don't worry with your suitcase dear
           Am                   G      F
'Cause the people out to get you     don't know that you're here
         G                        C
So don't worry with your suitcase dear


      C                 F    C
Honey you don't have to go nowhere
      C                 F    C
Honey you don't have to go nowhere 
	       Am                         G      F  
'Cause there's people out there screaming,     there's anger in the air
    G                      C
But you don't have to go nowhere

        C              F        C
Just forget about your troubled life
        C              F        C
Just forget about your troubled life
	  Am                     G      F 
Oh 'cause I can see you dreaming,      knowing that it's time
      G                       C
So forget about your troubled life


solo not relitive to capo!
e|---------------------------------------------------------------------------|
B|-----9---9-10-9------9-10-9----------------------9-------------------------|
G|----------------11-9-------11-9--8-6--9-11-6--11---------------------------|
D|---------------------------------------------------------------------------|
A|---------------------------------------------------------------------------|
E|---------------------------------------------------------------------------|
[ Tab from: http://www.guitartabs.cc/tabs/j/joe_purdy/suitcase_tab.html ]
         C               F        C 
So don't worry with your suitcase dear
           C               F        C
Well don't worry with your suitcase dear
	   Am                   G    F
'Cause the people out to get you     don't know that you're here
         G                        C
So don't worry with your suitcase dear
	Am                   G    F
No the people out to get you      don't know that you're here
         G                        C    F    C
So don't worry with your suitcase dear







If you don't have a capo you can play it like this


E:   x79997
A:   577655
C#m: x46654
B:   799877


Intro:

E E

           E               A        E 
Well don't worry with your suitcase dear
           E               A        E
Well don't worry with your suitcase dear
           C#m                  B    A
'Cause the people out to get you     don't know that you're here
         B                        E
So don't worry with your suitcase dear


      E                 A    E
Honey you don't have to go nowhere
      E                 A    E
Honey you don't have to go nowhere
               C#m                       B     A          
'Cause there's people out there screaming,     there's anger in the air
    B                      E
But you don't have to go nowhere

        E              A        E
Just forget about your troubled life
        E              A        E
Just forget about your troubled life
                        C#m     B      A   
Oh 'cause I can see you dreaming,      knowing that it's time
      B                       E
So forget about your troubled life


solo not relitive to capo!
e|---------------------------------------------------------------------------|
B|-----9---9-10-9------9-10-9----------------------9-------------------------|
G|----------------11-9-------11-9--8-6--9-11-6--11---------------------------|
D|---------------------------------------------------------------------------|
A|---------------------------------------------------------------------------|
E|---------------------------------------------------------------------------|

         E               A        E 
So don't worry with your suitcase dear
           E               A        E
Well don't worry with your suitcase dear
           C#m                 B   A
'Cause the people out to get you     don't know that you're here
         B                        E
So don't worry with your suitcase dear
       C#m                 B      A
No the people out to get you      don't know that you're here
         B                        E    A    E
So don't worry with your suitcase dear




| /  slide up
| \  slide down
| h  hammer-on
| p  pull-off
| ~  vibrato
| +  harmonic
| x  Mute note
==========================================================================