Joe Cocker - With A Little Help Chords & Tabs

 

With A Little Help Chords & Tabs

Joe Cocker Chords & Tabs

Version: 2 Type: Tab 0 ratings
1 star 2 stars 3 stars 4 stars 5 stars
comments

With A Little Help Tab

   
Before you indulge yourself in this song, let me tell you that it is not correct. This
is a version I play to make it sound fuller when you dont have a band right next to you.
(also note that this is my first tab, so sorry if there are any mistakes.)

Also you can tune the B string to an e and play both strings for the intro to make it
sound fuller.
-------------------------------------------------------------------------------
	      Joe Cocker - With a Little Help From my Friends
-------------------------------------------------------------------------------
Tabbed by: Cory
Email: Coryrory44@aol.com
                              (small vibratos in beggining) 15~ = vibrato
                              (12) = hold note
                              Play loud with light distortion
Tuning:

1.

e|-15~14~(12)----15~14~(12)----15~14~(12)----15~14~(12)----------------------|
B|---------------------------------------------------------------------------|
G|---------------------------------------------------------------------------|
D|---------------------------------------------------------------------------|
A|---------------------------------------------------------------------------|
E|---------------------------------------------------------------------------|
                                                   2.  G    D    A
e|-----------------------------------------------------3----2----0-----------|
B|-----------------------------------------------------3----3----2-----------|
G|-12~11~(9)----12~11~(9)----12~11~(9)----12~11~(9)----0----2----2-----------|
D|-----------------------------------------------------0----0----2-----------|
A|-----------------------------------------------------2---------0-----------|
E|-----------------------------------------------------3---------------------|
[ Tab from: http://www.guitartabs.cc/tabs/j/joe_cocker/with_a_little_help_tab_ver_2.html ]
                   3.
   G    D    A     :VOCALS START   (What would you do if I sang out of tune?)
e|-3----2----0---------------------------------------------------------------|
B|-3----3----2---------------------------------------------------------------|
G|-0----2----2---------------------------------------------------------------|
D|-0----0----2-----11-11\14-14--14/12/11/9\11\12-12--------------------------|
A|-2---------0---------------------------------------------------------------|
E|-3-------------------------------------------------------------------------|

4.
                   
e|---------------------------------------------------------------------------|
B|---------------------------------------------------------------------------|
G|---------------------------------------------------------------------------|
D|--9-9-11-9/7-7-7p6-h7-/2---------------------------------------------------|
A|---------------------------------------------------------------------------|
E|---------------------------------------------------------------------------|

3.                                  5.    :VOCALS END (I will try not to)

e|---------------------------------------------------------------------------|
B|---------------------------------------------------------------------------|
G|---------------------------------------------------------------------------|
D|-11-11\14-14--14/12/11/9\11\12-12-----7-9-11\9\7-7-7p6h7-\2----------------|
A|------------------------------------7--------------------------------------|
E|---------------------------------------------------------------------------|

Repeat a couple of times and your done with my version of the song. If you don't notice,
the soloing is actually the vocal lines.


| /  slide up
| \  slide down
| h  hammer-on
| p  pull-off
| ~  vibrato
| +  harmonic
| x  Mute note
===============================================================================
Comments