Joe Cocker - Have A Little Faith In Me Chords & Tabs

 

Have A Little Faith In Me Chords & Tabs

Joe Cocker Chords & Tabs

Version: 1 Type: Tab 0 ratings
1 star 2 stars 3 stars 4 stars 5 stars
comments

Have A Little Faith In Me Tab

************************************************
*Joe Cocker - Have a Little Faith In Me (solo) *
*					       *
*tabbed by palo				       *
*					       *
*erros, suggestions - mail me at predki@nhl.pl *
*					       *
************************************************

Notes:

/ - slide up

you have to work out the duration of the notes. the spaces between them don't
indicate how long you should play them.
I'm not sure about the ending but it sounds ok ;)

e|-----9--9------9-------9------------9-----11/13--------|
B|-11--------11-----11---------11------------------------|
G|-------------------------------------------------------|
D|-------------------------------------------------------|
A|-------------------------------------------------------|
E|-------------------------------------------------------|

[ Tab from: http://www.guitartabs.cc/tabs/j/joe_cocker/have_a_little_faith_in_me_tab.html ]
e|-9----------9----------9/13---13---14---16---13---11-------------18---16---14---16---13---9--------9---9---|
B|------11---------11------------------------------------14---11--------------------------------11-----------|
G|-----------------------------------------------------------------------------------------------------------|
D|-----------------------------------------------------------------------------------------------------------|
A|-----------------------------------------------------------------------------------------------------------|
E|-----------------------------------------------------------------------------------------------------------|


e|-------------------------------------------------------|
B|-9---11---9--------------------------------------------|
G|--------------10---8---------10---8--------------------|
D|------------------------11-----------------------------|
A|-------------------------------------------------------|
E|-------------------------------------------------------|



e|------------------------------------------------------|
B|--------11--------------------------------------------|
G|-8/10------10---8---6------6---8----------------------|
D|------------------------8----------8---6--------------|
A|------------------------------------------------------|
E|------------------------------------------------------|



e|---------------9--11--13--14--16--13--11--9--9--11--9--11--9---|
B|--------9--11--------------------------------------------------|
G|-8--10---------------------------------------------------------|
D|---------------------------------------------------------------|
A|---------------------------------------------------------------|
E|---------------------------------------------------------------|
Comments