Joe Bonamassa - Unbroken Chords & Tabs

 

Unbroken Chords & Tabs

Joe Bonamassa Chords & Tabs

Version: 1 Type: Tab 0 ratings
1 star 2 stars 3 stars 4 stars 5 stars
comments

Unbroken Tab

                         JOE BONAMASSA
                           UNBROKEN


STANDARD TUNING
EADGBe


------------------------------------------------------------------|
------------------------------------------------------------------|
------------------------------------------------------------------|
-----3-4---3-4-3--------------------3-4---3-4-3-------------------|
---4-----4-------4---4-6---4-6-4--4-----4-------4---4-6---4-6-4---|
-------------------6-----7------------------------6-----7---------|

------------------------------------------------------------------|
------------------------------------------------------------------|
------------------------------------------------------------------|
-----3-4---3-4-3--------------------3-4---3-4-3-------------------|
---4-----4-------4---4-6---4-6-4--4-----4-------4---4-6---4-6-4---|
-------------------6-----7------------------------6-----7---------|

------------------------------------------------------------------|
------------------------------------------------------------------|
------------------------------------------------------------------|
-----3-4---3-4-3--------------------3-4---3-4-3-------------------|
---4-----4-------4---4-6---4-6-4--4-----4-------4---4-6---4-6-4---|
-------------------6-----7------------------------6-----7---------|

--------------------------------------|
--------------------------------------|
----13----------13--------------------|
----13----13----13--15b-14b-13b-11----|
----11----13----11--------------------|
----------11--------------------------|

No one ever left me out in the rain,
Cold words that remained unspoken.
-------9-11-11br11-9--|
--9-11----------------|
----------------------|the fill after that last line
----------------------|
----------------------|
----------------------|

[ Tab from: http://www.guitartabs.cc/tabs/j/joe_bonamassa/unbroken_tab.html ]
I never got lost, spent years in the dark,
'Cuz you're here now my heart's unbroken.
When I see you smile, feel my soul again - I'm unbroken.

------------------------------------------------------------------|
------------------------------------------------------------------|
------------------------------------------------------------------|
-----3-4---3-4-3--------------------3-4---3-4-3-------------------|
---4-----4-------4---4-6---4-6-4--4-----4-------4---4-6---4-6-4---|
-------------------6-----7------------------------6-----7---------|

------------------------------------------------------------------|
------------------------------------------------------------------|
------------------------------------------------------------------|
-----3-4---3-4-3--------------------3-4---3-4-3-------------------|
---4-----4-------4---4-6---4-6-4--4-----4-------4---4-6---4-6-4---|
-------------------6-----7------------------------6-----7---------|

fill
------9--------------|
--------12p9---------|
--11b--------11-9b---|
---------------------|
---------------------|
---------------------|

If I doubted the power of love baby,
Now I understand.
I thank God for everyday that you touch me like heaven,
Inside your warm hands.
--------------------------------------|
--------------------------------------|
----13----------13--------------------|
----13----13----13--15b-14b-13b-11----|
----11----13----11--------------------|
----------11--------------------------|

In this world sometimes the only thing that's real,
Is the way you make me feel.
Baby the change is day to night - I swear it's like:
No one ever left me out in the rain,
Cold words that remained unspoken.
-------9-11-11br11-9--|
--9-11----------------|
----------------------|
----------------------|
----------------------|
----------------------|
Comments