Joe Bonamassa - Dont Burn Down That Bridge Chords & Tabs

 

Dont Burn Down That Bridge Chords & Tabs

Joe Bonamassa Chords & Tabs

Version: 1 Type: Tab 0 ratings
1 star 2 stars 3 stars 4 stars 5 stars
comments

Dont Burn Down That Bridge Tab

                           JOE BONAMASSA
                     DONT BURN DOWN THAT BRIDGE


STANDARD TUNING
EADGBe

--------------8b------------------------|
-------8-10-----------------------------|
------------9----------12p10------------|x3
--4s6-------------4s6--------13-11-9----|
--4s6-------------4s6-------------------|
--2s4-------------2s4-------------------|


then it goes like this
-------------8------------------|
------8-10-----10p8-------------|
-----------9--------------------|
--4s6---------------6-6-6-6-----|
--4s6---------------6-6-6-6-----|
--2s4---------------4-4-4-4-----|

[ Tab from: http://www.guitartabs.cc/tabs/j/joe_bonamassa/dont_burn_down_that_bridge_tab.html ]
--------------8b--------------------------------|
-------8-10-------------------------------------|
------------9----------12p10--------------------|
--4s6-------------4s6--------13-11-9---4s6------|
--4s6-------------4s6------------------4s6------|
--2s4-------------2s4------------------2s4------|


--------------8b------------------------|
-------8-10-----------------------------|
------------9----------12p10------------|
--4s6-------------4s6--------13-11-9----|
--4s6-------------4s6-------------------|
--2s4-------------2s4-------------------|

------------------------|
------------------------|
--4s6-66----4s6-66------|
--4s6-66----4s6-66------|
--2s4-44----2s4-44------|
------------------------|

after that just repeat those things
listen to the song so you know how it goes
after what i tabbed there is a great solo but its past me
thats it
peace
Comments