Joanna Newsom - Bridges And Balloons Chords & Tabs

 

Bridges And Balloons Chords & Tabs

Joanna Newsom Chords & Tabs

Version: 1 Type: Tab 0 ratings
1 star 2 stars 3 stars 4 stars 5 stars
comments

Bridges And Balloons Tab

   
Joanna Newsom
"Bridges & Balloons"
Tab by Cam.

I was fiddeling around one day and came up with this
little tab for Joanna Newsom's "Bridges and Balloons".
You play it very fast and baisiclly just try to immitate
her harp.

Tuning:
F# A C# F# B Eb

Verses:

Repeat 2X
------------------------------------|
------------------------------------|
--------0-------0--------0-------0--|
------0-------0--------0-------0----|
----1-------1--------1-------1------|
--0-------0--------0-------0--------|
"We sailed away on a winter's day..."

Repeat 2X
------------------------------------|
------------------------------------|
--------0-------0--------0-------0--|
------2-------2--------2-------2----|
----1-------1--------1-------1------|
--0-------0--------0-------0--------|
"...With fate as malleable as clay..."

Etc...Etc...

Choris:


------------------------------------|
--------0-------0-------0-------0---|
------0-------0-------0-------0-----|
----2-------2-------2-------2-------|
------------------------------------|
--2-------2-------2-------2---------|
"...O my..."
[ Tab from: http://www.guitartabs.cc/tabs/j/joanna_newsom/bridges_and_balloons_tab.html ]
--------0-------0-------0-------0---|
------0-------0-------0-------0-----|
----0-------0-------0-------0-------|
------------------------------------|
------------------------------------|
--5-------5-------5-------5---------|
"...Love, O it was a..."

------------------------------------|
------------------------------------|
--------0-------0--------0-------0--|
------0-------0--------0-------0----|
----1-------1--------1-------1------|
--0-------0--------0-------0--------|
"...Funny little thing..."


Etc...Etc...

Ending:

--------------------------------------------------|
--------------------------------------------------|
--------0--0--------0--0--------0--0--------0--0--|
------0----0------0----0------0----0------0----0--|
----1------1----1------1----1------1----1------1--|
--0-----------0-----------0-----------0-----------|

--------------------------------------------------|
--------------------------------------------------|
--------0--0--------0--0--------0--0--------0--0--|
------2----2------2----2------2----2------2----2--|
----1------1----1------1----1------1----1------1--|
--0-----------0-----------0-----------0-----------|

Elaborate and play around with the ending...
Comments