Joan Jett - I Love Rock N` Roll Chords & Tabs

 

I Love Rock N` Roll Chords & Tabs

Joan Jett Chords & Tabs

Version: 3 Type: Tab 0 ratings
1 star 2 stars 3 stars 4 stars 5 stars
comments

I Love Rock N` Roll Tab

This is the right way to play this little intro.
I saw other tabs and it made me mad at how incorrect. But this is it.
[ Tab from: http://www.guitartabs.cc/tabs/j/joan_jett/i_love_rock_n_roll_tab_ver_3.html ]
e----------------------------------
B----------------------------------
G---------------2-2--5-5-----------  x2
D-2-2---2-2-----2-2--5-5-----2-2---
A-2-2---2-2-----0-0--3-3-----2-2---
E-0-0---0-0--3-3---------3b--0-0---

Then

e-0----13-11---------
B-0----------13-11---
G-1----------------13
D-2------------------
A-2------------------
E-0------------------

its that simple. Thanks wick3d guitar
Comments