Joan Jett - I Love Rock N` Roll Chords & Tabs

 

I Love Rock N` Roll Chords & Tabs

Joan Jett Chords & Tabs

Version: 3 Type: Bass Tab 0 ratings
1 star 2 stars 3 stars 4 stars 5 stars
comments

I Love Rock N` Roll Bass Tab

   
Intro
  Moderate Rock Q=100
 4/4
  Gtr I
  W          E E Q  E E Q    E E Q  E E Q
|----------|---------------|---------------|
|----------|---------------|---------------|
|----------|-7-7----7-7----|---------------|
|----------|---------------|-5-5----7-7----|

                 3/4          4/4
  E E Q  E E Q    E E Q  E E   E E Q  H
|---------------|------------|-------------|
|---------------|------------|-------------|
|-7-7----7-7----|------------|-7-7---------|
|---------------|-5-5----7-0-|-------------|

  E E Q  S S E S E.     
|-------------------|
|-------------------|
|-7-7----7-5--------|
|------------7-5-3--|

Verse 
   E E Q  H      E E Q  S S E S E.
|--------------|-------------------|
|o-------------|-------------------|
|o-------------|-7-7----7-5--------|
|--0-0---------|------------7-5-3--|

  E E Q  H      E E Q  S S E S E.   E E Q  E E Q
|-------------|-------------------|----------------|
|-------------|-------------------|----------------|
|-------------|-7-7----7-5--------|----------------|
|-0-0---------|------------7-5-3--|-5-5----7-7-----|

 2/4      4/4
  E E Q    W          +W
|--------|----------|--------|
|--------|----------|--------|
|-7-7----|----------|--------|
|--------|-5--------|-(5)----|

  W          W          E E E E E E E E
|----------|----------|-----------------||
|----------|----------|-----------------||
|----------|----------|-----------------||
|----------|----------|-7-7-7-7-7-7-7-7-||
[ Tab from: http://www.guitartabs.cc/tabs/j/joan_jett/i_love_rock_n_roll_btab_ver_3.html ]
Chorus
  E E Q  E E Q    E E Q  E E Q    E E Q  E E Q
|---------------|---------------|---------------|
|---------------|---------------|---------------|
|-7-7----7-7----|---------------|-7-7----7-7----|
|---------------|-5-5----7-7----|---------------|

 3/4          4/4
  E E Q  E E   E E Q  H      E E Q  S S E S E.
|------------|-------------|--------------------||
|------------|-------------|-------------------o||
|------------|-7-7---------|-7-7----7-5--------o||
|-5-5----7-0-|-------------|------------7-5-3---||

Verse

Chorus

Guitar Solo
  E E Q  H      E E Q  S S E S E.   E E Q  H
|-------------|-------------------|-------------|
|-------------|-------------------|-------------|
|-------------|-7-7----7-5--------|-------------|
|-0-0---------|------------7-5-3--|-0-0---------|

                                     2/4
  E E Q  S S E S E.   E E Q  E E Q    E E Q
|-------------------|---------------|--------|
|-------------------|---------------|--------|
|-7-7----7-5--------|---------------|-7-7----|
|------------7-5-3--|-5-5----7-7----|--------|

 4/4
  W          +W           Wx3
|----------|------------|--------||
|----------|------------|--------||
|----------|------------|--------||
|-5--------|-(5)--------|--------||

Chorus

Outro, play 3 times first ending, 4th time play the last ending
                4/4
  Wx4            E E Q  E E Q    E E Q  E E Q
|------------||----------------|---------------|
|------------||o---------------|---------------|
|------------||o-7-7----7-7----|---------------|
|------------||----------------|-5-5----7-7----|

                 1.,2.,3.
                 3/4
  E E Q  E E Q    E E Q  E E
|---------------|-------------||
|---------------|------------o||
|-7-7----7-7----|------------o||
|---------------|-5-5----7-0--||

  4.
 3/4          4/4
  E E Q  E E   Q  Q  H
|------------|------------*|
|------------|------------*|
|------------|------------*|
|-5-5----7-5-|-0----------*|
Comments