Joan Jett - I Love Rock N` Roll Chords & Tabs

 

I Love Rock N` Roll Chords & Tabs

Joan Jett Chords & Tabs

Version: 2 Type: Bass Tab 0 ratings
1 star 2 stars 3 stars 4 stars 5 stars
comments

I Love Rock N` Roll Bass Tab

   
-----------------------------------------------------------------------
I LOVE ROCK AND ROLL  Joan Jett and the Blackhearts
-----------------------------------------------------------------------

Tabbed By: JScott
E-mail: penobypost@hotmail.com

Tuning: Standard
Intro/Chorus 1 & 2
G|--------------------------------------------------------------------|
D|--------------------------------------------------------------------|
A|---------00--22-----------00--20--------75--------------------------|
E|00--00-3----------00--003--------00--00---753-----------------------|

Verse 1 & 2 (* Hold)
G|--------------------------------------------------------------------|
D|--------------------------------------------------------------------|
A|--------75----------22--75-----00--22----0*-------------------------|
E|00--00----753---00--------753---------00----------------------------|
[ Tab from: http://www.guitartabs.cc/tabs/j/joan_jett/i_love_rock_n_roll_btab_ver_2.html ]
Pre-Chorus
G|--------------------------------------------------------------------|
D|--------------------------------------------------------------------|
A|2222--2222----------------------------------------------------------|
E|--------------------------------------------------------------------|

Solo (* Hold)
G|--------------------------------------------------------------------|
D|--------------------------------------------------------------------|
A|--------75-----------22--75-------00--22-----0*---------------------|
E|00--00----753----00--------753------------00------------------------|

Outro (Repeat several times)
G|--------------------------------------------------------------------|
D|--------------------------------------------------------------------|
A|---------00--22-----------00-20-------------------------------------|
E|00--003-----------00--003-------00----------------------------------|

| /  slide up
| \  slide down
| h  hammer-on
| p  pull-off
| ~  vibrato
| +  harmonic
| x  Mute note

=======================================================================
Comments